Cifra Club

Mono Porfiado

Chancho En Piedra

Cifrado: Principal (guitarra y guitarra eléctrica)
Selo Cifra Club: esta cifra foi revisada para atender aos critérios oficiais da nossa Equipe de Qualidade.
tono: E
INTRO
Con respecto a esta sección, puedo decir que tengo varias teorías...

TEORÍA I:

E|--10------------------------|
B|--10-10-10--8-8-8---8b9-----|
G|--10--------7---7-------10--|
D|----------------------------|
A|----------------------------|
E|----------------------------|

ahora bien, yo creo que realmente se trata de lo siguiente...

TEORÍA II

E|--5-5-5------------------|
B|--6-6-6--8-8-8---8b9-----|
G|--7-7-7--7-7-7-------10--|
D|--7-7-7--6-6-6-----------|
A|-------------------------|
E|-------------------------|

o sea, igual la teoría I y la II se parecen su resto...
pero podrían parecerse mucho más si hicieramos esto

E X

E|--10-----------------------|
B|--10-10-10--8-8-8--8b9-----|
G|--10-10-10--7-7-7------10--|
D|--12-12-12--6-6-6----------|
A|---------------------------|
E|---------------------------|

bueno, tienen todas esas opciones... la verdad yo me quedo con el E X ya
que si se dan cuenta al principio suena una nota agudísima en el acorde
que vendría a ser el re de la primera cuerda décimo espacio

********NOTA: no sabía anotar el bend, así que recurrí a la sección:
"recursos/información util/¿cómo se lee la tablatura (2a parte)?"
... pa' q' cachen como es la cuestión
... en todo caso es un detalle :P

*************************************************************************
ESTROF  1

E|--10------13--------15b16**-13--15b16-13----15b16-13--15b16-13-------|
B|---------------------------------------------------------------------|
G|------10*------10*----------------------------------------------10*--|
D|---------------------------------------------------------------------|
A|---------------------------------------------------------------------|
E|---------------------------------------------------------------------|

*se repite incontables veces
**no creo que el bend sea tan extenso, pero no sé escribir menos :P

*************************************************************************
CORO

A.
E|--5--5-5---------10-10-x-x-10-10--|
B|--6--6-6--8b9----10-10-x-x-10-10--|
G|--5--5-5------7--10-10-x-x-10-10--|
D|--7--7-7--------------------------|
A|-(5--5-5)-------------------------|
E|----------------------------------|
Obviamente las X nunca van a ser suficientes, pero es para que tengan una
idea de la cosilla


B.
E|-------8--------|
B|--8s10---8s6----|
G|-------------7--|
D|----------------|
A|----------------|
E|----------------|


FINAL 1                 FINAL 2

E|---------10--| |----------|
B|--8s10-6-----| |--8s10-6--|
G|-------------| |----------|
D|-------------| |----------|
A|-------------| |----------|
E|-------------| |----------|


FINAL 3            FINAL 4

E|--------| |--------------|
B|--8s10--| |--8/10-6---6--|
G|--------| |---------7----|
D|--------| |--------------|
A|--------| |--------------|
E|--------| |--------------|

*************************************************************************
ESTROF  2

                                        x2
E|-----------------------------------------|
B|--6s3s6--8-6--8-6--8b9-6--6-6-6-6-6-8-6--|
G|--5s2s5--5-5--5-5--5---5--5-7-5-7-5-5-5--|
D|-----------------------------------------|
A|-----------------------------------------|
E|-----------------------------------------|



E|--15b16-13--15b16-13----15b16-13--15b16-13--|
B|--------------------------------------------|
G|--------------------------------------------|
D|--------------------------------------------|
A|--------------------------------------------|
E|--------------------------------------------|



E|-----------------------------------------|
B|--6s3s6--8-6--8-6--8b9-6--6-6-6-6-6-8-6--|
G|--5s2s5--5-5--5-5--5---5--5-7-5-7-5-5-5--|
D|-----------------------------------------|
A|-----------------------------------------|
E|-----------------------------------------|

bueno, con tanto efecto es peluo sacar esta parte, pero para nuestro
beneficio se le va el efecto en la última parte de la estrofa :P

*************************************************************************
PUENTE

A.              B.
E|-------| |---------------------------------------|
B|-------| |--6h8-6--------------8-6---------------|
G|-------| |--------7----------------7---6--7-6----|
D|-------| |----------8-8-5--8-5-------5--------9--|
A|-------| |---------------------------------------|
E|--5-3--| |---------------------------------------|


C.
E|------------------------------|
B|--6h8-6--------------8-6------|
G|--------7----------------7----|
D|----------8-8-5--8-5-------5--|
A|------------------------------|
E|------------------------------|

*************************************************************************
G  O
(para que sea más fácil leerlo lo voy a anotar por frases y abajo el
tiempo en que va la pista porsiaca)

E|--------------------------------------------------------|
B|--------------------------------------------------------|
G|--------------------------------------------------------|
D|----------------------------7-10-7----------------------|
A|--8h10p8h10p8*...10b11-8-10--------8-10b11-10-8-8h10-8--|
E|--------------------------------------------------------|
* por mil veces                                     [1:58]

                                     |esto se repite varias veces
E|------------------------------------|-------------|
B|------------------------------8-----|--8h10p8-----|
G|---------------7----7-10-7-10---10--|---------10--|
D|--7-10-10-7-10---10-----------------|-------------|
A|------------------------------------|-------------|
E|------------------------------------|-------------|
                                              (2:02)


E|----------8-8-10-10-13-13-10-8------------------|
B|--8-10-10----------------------10-8-10s11-8-----|
G|--------------------------------------------10--|
D|------------------------------------------------|
A|------------------------------------------------|
E|------------------------------------------------|

*************************************************************************
PARTE C

A.
E|----------------------------------|
B|----------------------------------|
G|----------------------------------|
D|--6b*----6b----6b----6b----3h5-3--|
A|------5-----5-----5-----5---------|
E|----------------------------------|
*nuevamente lo del bend, en este caso es un bend muy mínimo así que lo
anoté así... onda a la nada
- va formando armónicos artificiales con las mismas notas entremedio

B.                                            C.
E|-------------------------------------| |---------|
B|--8b------------8b------------8b-----| |--8b-----|
G|-----10------------10------------10--| |-----10--|
D|--------12b-10--------12b-10---------| |---------|
A|-------------------------------------| |---------|
E|-------------------------------------| |---------|
Otros videos de esta canción
    2 exhibiciones
      • ½ Tono
      • A
      • Bb
      • B
      • C
      • Db
      • D
      • Eb
      • E
      • F
      • F#
      • G
      • Ab
    • Agregar a la lista

    Afinação da cifra

    Afinador online

      Ops (: Contenido disponible solo en portugués.
      OK