Cifra Club

Moscardón

Chancho En Piedra

Cifrado: Principal (guitarra y guitarra eléctrica)
Selo Cifra Club: esta cifra foi revisada para atender aos critérios oficiais da nossa Equipe de Qualidade.
tono: G#m
    intro
E|---------------------------------------------------------------------|
B|---------------------------------------------------------------------|
G|---------------------------------------------------------------------|
D|---7--8--9--9--9--9--9--9--7--8--9--9--9--9--9--9--7--8--9--9--9--9--|
A|---5--6--7--7--7--7--7--7--5--6--7--7--7--7--7--7--5--6--7--7--7--7--|
E|---------------------------------------------------------------------|


                                 estrofa   con o sin tapping
E|--------------------------------|------------------------------------|
B|--------------------------------|------------------------------------|
G|---------------------------14^--|-----14--14--16--14--16~~~--14--14--|
D|---9--9--7--8--9--9--9--9-------|------------------------------------|
A|---7--7--5--6--7--7--7--7-------|------------------------------------|
E|--------------------------------|------------------------------------|



E|---------------------------------------------------------------------|
B|---------------------------------------------------------------------|
G|---16--14--16--14--14~~~--14--14--16--14--16~~~--14--14--16--14--16--|
D|---------------------------------------------------------------------|
A|---------------------------------------------------------------------|
E|---------------------------------------------------------------------|


                   precoro(srepitehartas veces)
E|---------------|-----------------------------------|-----------------|
B|---------------|-----------------------------------|-----------------|
G|---/22--16/22--|-----------------------------------|-----------------|
D|---------------|--2--4--5--------------------------|-----------------|
A|---------------|--0--2--3--5--4--------------------|-----------------|
E|---------------|-----------3--2--------------------|-----------------|


    coro igual que intro             postco(tambien se repite harto)
E|---------------------------------|-----------------------------------|
B|---------------------------------|-----------------------------------|
G|---------------------------------|-----------------------------------|
D|---------------------------------|-----------------------------------|
A|---------------------------------|--2--3--4--5-----------------------|
E|---------------------------------|--0--1--2--3-----------------------|


             solo guitarra
E|---------|-----------------------------------------------------------|
B|---------|--15^--15^--15~~~------------------------------------------|
G|---------|-------------------14^--14^--14--12-------------12---------|
D|---------|-------------------------------------14--12h14------14-----|
A|---------|-----------------------------------------------------------|
E|---------|-----------------------------------------------------------|



E|---------------------------------------------------------------------|
B|---------------------------------------------------------------------|
G|---12--12h14-----12~~~------------------------11--12--12h14--12--11--|
D|------------/14---------14--12--12h14--12~~~-------------------------|
A|---------------------------------------------------------------------|
E|---------------------------------------------------------------------|



E|------------------------------------------------------------------7--|
B|--------------------------------------------------------7--8--10-----|
G|---11------------------11h12p11-------------------8--9---------------|
D|-------14--12--11--12-------------------7--9--10---------------------|
A|---------------------------------9--10-------------------------------|
E|---------------------------------------------------------------------|



E|---8--10/12-----12--15--14--12---------------------------------------|
B|--------------------------------15--14--13--12--14~~~~~~-------------|
G|---------------------------------------------------------------------|
D|-------------------------------------------------------------2--4----|
A|-------------------------------------------------------------0--2----|
E|---------------------------------------------------------------------|


    (solo bajo)                         ultima estrofa
E|------------------------------------|--------------------------------|
B|------------------------------------|--15~~~--14~~~--13^--13-----12--|
G|------------------------------------|--14-----13-----12---12~~~--11--|
D|---------------------2--4-----7--5--|--------------------------------|
A|---------------------0--2-----5--3--|--------------------------------|
E|------------------------------------|--------------------------------|



E|-------------| |------------------------------------------------------
B|------12-----| |------------------------------------------------------
G|---^--11~~~--| |------------------------------------------------------
D|-------------| |------------------------------------------------------
A|-------------| |------------------------------------------------------
E|-------------| |------------------------------------------------------
Otros videos de esta canción
    15 exhibiciones
      • ½ Tono
      • Am
      • Bbm
      • Bm
      • Cm
      • C#m
      • Dm
      • Ebm
      • Em
      • Fm
      • F#m
      • Gm
      • G#m
    • Agregar a la lista

    Afinação da cifra

    Afinador online

      Ops (: Contenido disponible solo en portugués.
      OK