Cifra Club

No Joda

Chancho En Piedra

Cifrado: Principal (guitarra y guitarra eléctrica)
Selo Cifra Club: esta cifra foi revisada para atender aos critérios oficiais da nossa Equipe de Qualidade.
tono: Dm
intro

E|----------------------------------------20-19-17-|
B|------------------------18-17-15-----------------|
G|-------20-19-17-------------------17-19----------|
D|-17-19------------15-17--------------------------|
A|-------------------------------------------------|
E|-------------------------------------------------|




toos los versos incluyendo la parte en k dice
"si no sabe no opine no joda..." son asi
como lo k sigue ahora


E|---------------------------------------------------|
B|-----------------55--------------------------------|
G|-----------------55--------------------------------|
D|-----------------55--------------------------------|
A|--5-0-5--5-6-5-3-33---5-0-5--5-6-5-3------0-5-3----|
E|--------------------------------------0-3----------|

E|---------------------------------------------------|
B|-----------------55--------------------------------|
G|-----------------55--------------------------------|
D|-----------------55-------------------------8-7----|
A|--5-0-5--5-6-5-3-33---5-0-5--5-6-5-3------0--------|
E|--------------------------------------0-3----------|




coro
no toy muy seguro del comienzo del coro pero de lo demas
si estoy  seguro


E|----------------------------------------------------------|
B|----------------------------------------------------------|
G|----------------------------------------------------------|
D|-----------------------------------7-77-------------------|
A|----8-7-5-------5-7---5------------7-77------5------------|
E|--8-------8-7-8---------8-7-8-7-5--5-55--5-7---3-35-7-3-5-|

E|--------------------------------------------------------------|
B|--------------------------------------------------------------|
G|--------------------------------------------------------------|
D|-----------------------------------7-77-----------------------|
A|----8-7-5-------5-7---5------------7-77-----5-7--10-7---5-----|
E|--8-------8-7-8---------8-7-8-7-5--5-55--58-----------8---8-5-|




outro

esta parte esta weena



E|--------------------------------------------------------|
B|--------------------------------------------------------|
G|--------------------------------------------------------|
D|--------------------------------------------------------|
A|--8-7-5-7---8-7-5-7---8-7-5-7--8-7-5-7---7-87-87--------|
E|--------------------------------------------------------|

E|----------------------------------------------------------|
B|----------------------------------------------------------|
G|----------------------------------------------------------|
D|------------------------------------------------87-87-87--|
A|--8-7-5-7---8-7-5-7---8-7-5-7--8-7-5-7-----7-87-----------|
E|----------------------------------------------------------|

E|----------------------------------------------------------|
B|----------------------------------------------------------|
G|----------------------------------------------------------|
D|----------------------------------------------------------|
A|--8-7-5-7---8-7-5-7---8-7-5-7--8-7-5-7---7-87-87----------|
E|----------------------------------------------------------|

E|----------------------------------------------------------|
B|----------------------------------------------------------|
G|----------------------------------------------------------|
D|------------------------------------------------87-87-----|
A|--8-7-5-7---8-7-5-7---8-7-5-7--8-7-5-7-----7-87-----------|
E|----------------------------------------------------------|

E|---------------------------------|
B|---------------------------------|
G|---------------------------------| ahi ven uds cuantas
D|--------87-87-------87-87--------| veces son XDDD
A|--87-87-------87-87-------87-87--|
E|---------------------------------|




ya aki termino mi segundo tab de los chancho... ojala k
este weon po y k lo acepten XDD.. este lo hice pok no
habia niuno de esta cancion asike ahi les va...
aps y un saludo pa toos mis amigos de los angeles, pa la jaii
el bombero, el sata y toos los demas, y ambien pa tooa la
comunidad marrana de chile asike...
¡¡¡Viva Chile mierda... y los CHANCHO EN PIEDRA!!!
Otros videos de esta canción
    21 exhibiciones
      • ½ Tono
      • Am
      • Bbm
      • Bm
      • Cm
      • C#m
      • Dm
      • Ebm
      • Em
      • Fm
      • F#m
      • Gm
      • G#m
    • Agregar a la lista

    Afinação da cifra

    Afinador online

      Ops (: Contenido disponible solo en portugués.
      OK