Cifra Club

No quiero verte

Chancho En Piedra

Cifrado: Principal (guitarra y guitarra eléctrica)
Selo Cifra Club: esta cifra foi revisada para atender aos critérios oficiais da nossa Equipe de Qualidade.
tono: Dm
intro, verso

E|------------------------------------------------------|
B|------------------------------------------------------|
G|------------------------------------------------------|
D|--------------0-3*--------------0-3*--------------0-3*|
A|-0-0-3-0-0-0-------0-0-3-0-0-0-------0-0-3-0-0-0------|
E|------------------------------------------------------|


precoro

E|------------------------------------------------------|
B|------------------------------------------------------|
G|------------------------------------------------------|
D|------------------------------------------------------|
A|----10----8-7---10------8-7---10-------8-7------------|
E|----8-----6-5---8-------6-5---8--------6-5------------|


solo

E|------------------------------------------------------|
B|------------------------------------------------------|
G|------------------------------------------------------|
D|----------3-3-3----------3-3-3---------3-3-3----------|
A|--3-5-3-5--------3-5-3-5-------3-5-3-5----------------|
E|------------------------------------------------------|

coro

E|------------------------------------------------------|
B|------------------------------------------------------|
G|------------------------------------------------------|
D|---55555---33333---222---55555---33333---222----------|
A|---33333---11111---000---33333---11111---000----------|
E|------------------------------------------------------|


intro
verso
proscoro
acople
solo
coro
Otros videos de esta canción
    2 exhibiciones
      • ½ Tono
      • Am
      • Bbm
      • Bm
      • Cm
      • C#m
      • Dm
      • Ebm
      • Em
      • Fm
      • F#m
      • Gm
      • G#m
    • Agregar a la lista

    Afinação da cifra

    Afinador online

      Ops (: Contenido disponible solo en portugués.
      OK