Cifra Club

Oshcokota

Chancho En Piedra

Cifrado: Principal (guitarra y guitarra eléctrica)
Selo Cifra Club: esta cifra foi revisada para atender aos critérios oficiais da nossa Equipe de Qualidade.
tono: G#m
Intro:

E|---------------------------|--------------|--------------------------| |
B|---------------------------|--------------|--------------------------| |
G|---------2/4---------------|-2/4----------|--------------------------| |
D|---2-2h4-----4-2-4/6| -2---|-----4-2-4----|--------------------------||
A|-4-----------------------4-|------------4-|-4-6/7-6h7-6h7-6h7h6--4| -||
E|---------------------------|--------------|--------------------------| |

 Aquí la guitarra no se toma mucho en cuenta, pero quise resaltar aquello
para que puedan tocar la cancion originalmente (sin tollos)...

Fig 1:
E|-----------------|-------------------------|------------------------------|
B|--------10---9v--|----------------10---9v--|-7v-7-----------10---9v---7v--|
G|-6v-6----9---9v--|-6v-6---------9------9v--|-6v-6---------9------9v---7v--|
D|-6v-6------------|-6v-6------11------------|-6v-6------11-----------------|
A|-----------------|--------11---------------|--------11--------------------|
E|-----------------|-------------------------|------------------------------|

E|-----------------| |
B|--------10---9v--| |
G|-6v-6----9---9v--| |
D|-6v-6------------| |
A|-4v--------------| |
E|-----------------| |

 Bueno, aquí comienza la segunda parte con la flauta traversa, se escuchan menos
los acordes...pero traté de hacer lo mejor posible.
Fig.2:

   C#       E       G#                      C#     E       G#       F#
E|---4-------7r---11--11----11----------|-4--4r--7--7r---11--11r---9---9---9-|
B|---4-------7r---12-----12----12--12---|-4--4r--7--7r---12--12r--10--10--10-|
G|-----------9----13-------------13--13-|-6------9-------13-------11------11-|
D|--------------------------------------|------------------------------------|
A|--------------------------------------|------------------------------------|
E|--------------------------------------|------------------------------------|

  C#       E       G#    F#    C#       E     G#
E|-4--------7-------11-----9--|----4-----7-----11v--| |
B|-4--------7-------12----10--|----4-----7-----12v--| |
G|-6----------------13----11--|----6-----------13v--| |
D|------------------13----11--|----------------13v--| |
A|----------------------------|---------------------| |
E|----------------------------|---------------------| |

  Como pueden ver en la primera parte la guitarra ha cambiado...pero no causa
ninguna molestia.
Fig.1-A:

E|-----------------------|-----------------------|--------------------------|
B|------------10------9--|-7v-7-------10------9--|-7v-7-------10-----9----7-|
G|-6v-6------9-------9---|-6v-6------9-------9---|-6v-6------9------9----7--|
D|-6v-6----11------11----|-6v-6----11------11----|-6v-6----11-----11----9---|
A|-------11------11------|-------11------11------|-------11-----11-----9----|
E|-----------------------|-----------------------|--------------------------|

E|----------------| |
B|--------10--9v--| |
G|-6v-6----9--9v--| |
D|-6v-6-----------| |
A|----------------| |
E|----------------| |

 En la segunda parte tambien ha cambiado pero no sufre tantos cambios y tiene
mejor soporte...
Fig.2-A:

   C#      E    G#                     C#   E    G#  F#       C#   E  G#   F#
E|-4--4---7----11--11----11----------|-4----7----11---9--9-|-4----7---11---9-|
B|-4--4---7----12-----12----12--12---|-4----7----12--10-10-|-4----7---12--10-|
G|-6------9----13-------------13--13-|-6----9----13--11----|-6----9---13--11-|
D|-----------------------------------|---------------------|----------13--11-|
A|-----------------------------------|---------------------|-----------------|
E|-----------------------------------|---------------------|-----------------|

  C#     E    G#
E|-(4)----7----11-11-11-11-11-11-| |
B|-(4)----7----12-12-12-12-12-12-| |
G|-(6)---------13-13-13-13-13-13-| |
D|-------------13-13-13-13-13-13-| |
A|-------------------------------| |
E|-------------------------------| |

 Aquí el (supuestamente) 'coro' no es tan difícil, pero si hay que tener
agilidad para mover los dedos...

Fig.3:
   D#   F#                  G#   D#        F#         B
E|-----------------------------|------------------------------------------|
B|-----------------------------|------------------------------------------|
G|-----------------------------|-----11/13| -(7)/8-6-------------------|
D|-8---11---11r--11/13| -9--|-8----------------------------------------|
A|-6----9----9r----------------|-6----9/119--(5)/6-4| -(2)/4-2h4-4-2/4/6-|
E|----------------9/119--7| --|------------------------------------------|

  D#     F#       G#                          D#           F#         B
E|----------------------14-14-14-14--11-11-11-|----------------------------| |
B|--------------------------------------------|----------------------------| |
G|--------------------------------------------|--------11/13| -(7)/8-6--||
D|-8--(8)/11--(11)/13-------------------------|-8--8r----------------------| |
A|-6--(6)/9----(9)/11-------------------------|-6--6r---9/119--(5)/6-4| --||
E|--------------------------------------------|----------------------------| |

 Ha llegado la hora del solo...DISFRUTALO

Fig 4:
E|----------------------------------------------------------------------------|
B|----------------------------------------------------------------------------|
G|----------------------------------------------------------------------------|
D|-----2-4-6-4-2-2h4--------------2-------------2---2-4-4/6-4-6-6/7-6---------|
A|-2h4---------------2h4(0)--2-4---4---2-4-2-4---4-------------------7-7/9-7-|
E|----------------------------------------------------------------------------|

E|-----------------------------------------------------------------------------|
B|-----------------------------------------------------------------------------|
G|-----------------------------------------------------------------------------|
D|----------------------------------------9/11---------------------------------|
A|-7-7/9-7------7--------7---7-9-9/119-7-------9(7)h(9)-9-11-12-11-9----7-7h9-|
E|--------9-7-9---9--7-9---9------------------------------------------11-------|

E|------------------------------|----------------------------------------------|
B|------------------------------|----------------------------------------------|
G|------------------------------|----------------------------------------------|
D|--------------4h5h4-2---------|----------------------------------------------|
A|-7------(2)/4---------4-2-2h4-|------7---7-9---------------7---7-9-----------|
E|---9--------------------------|-7--9---9--------------7--9---9---------------|

E|-----------------------------------------------------------------------------|
B|-----------------------------------------------------------------------------|
G|---------------------------9----9-11^-9----9---------------9r-----9r-11r--9r-|
D|--------------6---6-7-9-11---11---------11---11-9-9h11-11-11r-11-11r-11r-11r-|
A|------7---7-9---9------------------------------------------------------------|
E|-7--9---9--------------------------------------------------------------------|

E|--------------------------------------------|--------------------------------|
B|--------------------------------------------|-------12-----------------------|
G|-11^-9-11-9-11--11r--11r--11r--11r--11^-9---|---11^-11^-11--9-11-9---11^-9---|
D|----------------11r--11r--11r--11r----------|--------------------------------|
A|--------------------------------------------|--------------------------------|
E|--------------------------------------------|--------------------------------|

E|--------------9-12-11-9-----------------------|------------------------------|
B|------9-10-12-----------12-10-9---------------|-------------(11)/12----------|
G|-9-11---------------------------11-9-11^-9----|-11-13-11-13---------13v-11---|
D|-------------------------------------------11-|------------------------------|
A|----------------------------------------------|------------------------------|
E|----------------------------------------------|------------------------------|

E|------------|----------------------------------------------------------------|
B|------------|-------------(11)/12---12-(12)/14-12-14/17-14-17-19^-17-19v-19^-|
G|-13v-13(2)-|-11-13-11-13--------13------------------------------------------|
D|------------|----------------------------------------------------------------|
A|------------|----------------------------------------------------------------|
E|------------|----------------------------------------------------------------|

E|-19------19---------------------------------------------------------| |
B|-19^-19^-19^-17-19-17----17-----------------------------------------| |
G|----------------------18----18-16-18-16----16-----------------------| |
D|----------------------------------------18----18-16-18-16-14-16-16^-| |
A|--------------------------------------------------------------------| |
E|--------------------------------------------------------------------| |

 Bueno...hemos llegado casi al final de esta cancion, esta es la 2ª parte
pero con solo acordes...
Fig.2-B:

   C#    E      G#   C#    E     G#   F#   C#         E       G#      F#
E|-4-----7------11-|-4-----7-----11----9-|-4----------7-------11-------9----|
B|-4-----7------12-|-4-----7-----12---10-|-4----------7-------12------10----|
G|-6-----9------13-|-6-----9-----13---11-|-6----------9-------13------11----|
D|-----------------|---------------------|----------------------------------|
A|-----------------|---------------------|----------------------------------|
E|-----------------|---------------------|----------------------------------|
                                           'Espera un segundo y mira tu mundo
       C#        E      G#
E|------4---------7------11----| |
B|------4---------7------12----| |
G|------6---------9------13----| |
D|-----------------------------| |
A|-----------------------------| |
E|-----------------------------| |
 interior...'     '...mira...'

Orden:                                  Signos:
======                                  =======
-Intro
-Fig.1                                  h: Salto de cuerda sin quitar el dedo
-Fig.2                                     del espacio inicial.
-Fig.1-A                                /: Deslizamiento de adelante hacia atrás.
-Fig.2-A                                : Deslizamiento de atrás hacia adelante.
-Fig.3(coro)                            v: Vibración.
-Fig.4(solo)                            r: golpe de la cuerda.
-Fig.3(coro)                           (): Espacio no necesario de tocar.
-Fig.2-B(fin)                           ^: Levantamiento suave de la cuerda y
                                           espacio.
Otros videos de esta canción
    21 exhibiciones
      • ½ Tono
      • Am
      • Bbm
      • Bm
      • Cm
      • C#m
      • Dm
      • Ebm
      • Em
      • Fm
      • F#m
      • Gm
      • G#m
    • Agregar a la lista

    Afinação da cifra

    Afinador online

      Ops (: Contenido disponible solo en portugués.
      OK