Cifra Club

Preocupaciones tontas

Chancho En Piedra

Cifrado: Principal (guitarra y guitarra eléctrica)
Selo Cifra Club: esta cifra foi revisada para atender aos critérios oficiais da nossa Equipe de Qualidade.
tono: F
   Riff 1
E|------------------|
B|------------------|
G|------------------|
D|------------------|
A|-3-3-6-5-10--7---|
E|-1-1-4-3-8---5---|

   Riff 2
E|--------------------------------------------------------------------------|
B|--------------------------------------------------------------------------|
G|--------------------------------------------------------------------------|
D|-------------10-11-11-10-10-10-10-10-10-10-8-8-8-8-8-8-10-8---------------|
A|-8-8-8-8-8-8-8--9--9--8--8--8--8--8--8--8--6-6-6-6-6-6-8-6--10-8-8-8-8-8--|
E|-6-6-6-6-6-6------------------------------------------------8--6-6-6-6-6--|

Verso A)

A#                                   C# 
Odio las personas que no estan ni ahi
todo lo que ella pasa en la actualidad
Hago lo que quiero en cualquier lugar
Me rio a carcajadas del que diran...Guau!

A)
No Creo que todo vaya a mejorar
Cristianos que lo amen en la politica
Izquierda y derecha me dan Igual
No Creo en promesas por el bienestar

Riff 2>
Riff 1>Aqui desliza mas lento

A)
No me importa lo que quieras ser
No me importa lo que quieras ser
No hagas esfuerzos para comprender
Por mucho explicarte no vas a entender

Riff 2>

Riff 3
E|--------------------|
B|--------------------|
G|--------------------|
D|--------------------|
A|-8-8-8-8-8-8-8-6-6--|
E|-6-6-6-6-6-6-6-4-4--|

Riff  4
E|----------------------------|
B|----------------------------|
G|----------------------------|
D|----------------------------|
A|-8-8-6-8-8-6-8-8-6-8-8-8-8--|
E|-6-6-4-6-6-4-6-6-4-6-6-6-6--|

Riff 5
E|------------15-17-18-17-15-------------15-18-17--|
B|---------17-------------------------17-----------|
G|-------------------------------------------------|
D|-10--7---------------------10--7---------------|
A|-8---5---------------------8---5---------------|
E|-------------------------------------------------|

Riff 2>

A)
No soporto tu opinion
No soporto la religion
Me cargan los programas de conversacion
Odio las estrellas de Television... Guau!
Otros videos de esta canción
    1 exhibiciones
      • ½ Tono
      • A
      • Bb
      • B
      • C
      • Db
      • D
      • Eb
      • E
      • F
      • F#
      • G
      • Ab
    • Agregar a la lista

    Afinação da cifra

    Afinador online

      Ops (: Contenido disponible solo en portugués.
      OK