Cifra Club

Realizo todo bien

Chancho En Piedra

Cifrado: Principal (guitarra y guitarra eléctrica)
Selo Cifra Club: esta cifra foi revisada para atender aos critérios oficiais da nossa Equipe de Qualidade.
tono: Am
E|------------------------------------------------|
B|-8-7-5------------5----------------------------5|
G|-------7-7-5-7-7---7----------------------5h7---|
D|---------------------5-5-5-5-5-5-5-5-3-0--------|

Verso

Cuando el Viento sopla en contra mia...

E|-------------------------------|
B|-------------------------------|
G|-12----------------------------|
D|-12--------------------------5-|
A|-10----------------------5h7---|
E|-----5-5-5-5-5-5-5-5-3-0-------|

E|-------------------------------|
B|-------------------------------|
G|-12----------------------------|
D|-12--------------------------5-|
A|-10----------------------5h7---|
E|-----5-5-5-5-5-5-5-5-3-0-------|

E|-------------------------------|
B|-------------------------------|
G|-12----------------------------|
D|-12--------------------------5-|
A|-10----------------------5h7---|
E|-----5-5-5-5-5-5-5-5-3-0-------|

E|-------------------------------|
B|-------------------------------|
G|-12----------------------------|
D|-12--------------------------5-|
A|-10----------------------5h7---|
E|-----5-5-5-5-5-5-5-5-3-0-------|

Cuan Quijote tengo Dulcinea...

E|--------------|
B|--------------|
G|--------------|
D|-5-2-----5----|
A|-5-2-5-7----7-|
E|-3-0----------|

Puede ser una mina o una idea...

E|---------------------|
B|---------------------|
G|---------------------|
D|-------------------5-|
A|-------------5-7-7---|
E|-3-5-3-5-3-0---------|

Arraso con lo que pase por delante

E|--------------|
B|--------------|
G|--------------|
D|-5-2-----5----|
A|-5-2-5-7----7-|
E|-3-0----------|

Mis amigos son mi fiel Rocinante

E|-------------------------|
B|-------------------------|
G|-------------------------|
D|-------------------------|
A|-------------7-5---------|
E|-3-5-3-5-3-0-----7-6-5-3-|

Verso
Voy un paso adelante que el Atleta

E|-------------------------------|
B|-------------------------------|
G|-12----------------------------|
D|-12--------------------------5-|
A|-10----------------------5h7---|
E|-----5-5-5-5-5-5-5-5-3-0-------|

E|-------------------------------|
B|-------------------------------|
G|-12----------------------------|
D|-12--------------------------5-|
A|-10----------------------5h7---|
E|-----5-5-5-5-5-5-5-5-3-0-------|

E|-------------------------------|
B|-------------------------------|
G|-12----------------------------|
D|-12--------------------------5-|
A|-10----------------------5h7---|
E|-----5-5-5-5-5-5-5-5-3-0-------|

E|-------------------------------|
B|-------------------------------|
G|-12----------------------------|
D|-12--------------------------5-|
A|-10----------------------5h7---|
E|-----5-5-5-5-5-5-5-5-3-0-------|

Cuan Quijote creo mi camino

E|--------------|
B|--------------|
G|--------------|
D|-5-2-----5----|
A|-5-2-5-7----7-|
E|-3-0----------|

Lo escribo y lo vivo...

E|---------------------|
B|---------------------|
G|---------------------|
D|-------------------5-|
A|-------------5-7-7---|
E|-3-5-3-5-3-0---------|

No Pierdas tiempo en Lamentarse

E|--------------|
B|--------------|
G|--------------|
D|-5-2-----5----|
A|-5-2-5-7----7-|
E|-3-0----------|

No Importa caer si no Levantarse.

E|-------------------------|
B|-------------------------|
G|-------------------------|
D|-------------------------|
A|-------------7-5---------|
E|-3-5-3-5-3-0-----7-6-5-3-|

E|-------------------------------------|
B|-------------------------------------|
G|-7b(9)7-7b(9)7-----------------------|
D|-------------------------------------|
A|---------------5h7-5-----------------|
E|---------------------7-6-5-0-3-5-3-0-|

Realizo todo bien!!....

E|-------------------------------|
B|-------------------------------|
G|-------------------------------|
D|-7b(8)7-7b(8)7---------------5-|
A|-----------------------7-5-7---|
E|-----------------3-0-----------|

E|-------------------------------------|
B|-------------------------------------|
G|-7b(9)7-7b(9)7-----------------------|
D|-------------------------------------|
A|---------------5h7-5-----------------|
E|---------------------7-6-5-0-3-5-3-0-|

Realizo todo bien!!....

E|-------------------------------|
B|-------------------------------|
G|-------------------------------|
D|-7b(8)7-7b(8)7---------------5-|
A|-----------------------7-5-7---|
E|-----------------3-0-----------|

Es un buen dia hermano para poder respirar


E|-------------------------------|
B|-------------------------------|
G|-12----------------------------|
D|-12--------------------------5-|
A|-10----------------------5h7---|
E|-----5-5-5-5-5-5-5-5-3-0-------|

E|-------------------------------|
B|-------------------------------|
G|-12----------------------------|
D|-12--------------------------5-|
A|-10----------------------5h7---|
E|-----5-5-5-5-5-5-5-5-3-0-------|

E|-------------------------------|
B|-------------------------------|
G|-12----------------------------|
D|-12--------------------------5-|
A|-10----------------------5h7---|
E|-----5-5-5-5-5-5-5-5-3-0-------|

E|---------------------------------------------|
B|---------------------------------------------|
G|-12------------------------------------------|
D|-12------------------------------------------|
A|-10----------------------7-5----5-7-5--------|
E|-----5-5-5-5-5-5-5-5---------7---------7-5-3-|

Cuan Quijote tengo Dulcinea...

E|--------------|
B|--------------|
G|--------------|
D|-5-2-----5----|
A|-5-2-5-7----7-|
E|-3-0----------|

Puede ser una mina o una idea...

E|---------------------|
B|---------------------|
G|---------------------|
D|-------------------5-|
A|-------------5-7-7---|
E|-3-5-3-5-3-0---------|

Arraso con lo que pase por delante

E|--------------|
B|--------------|
G|--------------|
D|-5-2-----5----|
A|-5-2-5-7----7-|
E|-3-0----------|

Mis amigos son mi fiel Rocinante

E|-------------------------|
B|-------------------------|
G|-------------------------|
D|-------------------------|
A|-------------7-5---------|
E|-3-5-3-5-3-0-----7-6-5-3-|

E|-------------------------------------|
B|-------------------------------------|
G|-7b(9)7-7b(9)7-----------------------|
D|-------------------------------------|
A|---------------5h7-5-----------------|
E|---------------------7-6-5-0-3-5-3-0-|

Realizo todo bien!!....

E|-------------------------------|
B|-------------------------------|
G|-------------------------------|
D|-7b(8)7-7b(8)7---------------5-|
A|-----------------------7-5-7---|
E|-----------------3-0-----------|

E|-------------------------------------|
B|-------------------------------------|
G|-7b(9)7-7b(9)7-----------------------|
D|-------------------------------------|
A|---------------5h7-5-----------------|
E|---------------------7-6-5-0-3-5-3-0-|

Realizo todo bien!!....

E|-------------------------------|
B|-------------------------------|
G|-------------------------------|
D|-7b(8)7-7b(8)7---------------5-|
A|-----------------------7-5-7---|
E|-----------------3-0-----------|

Solo
Una parte no toy seguro...pero suena bien...
E|------------------------------------------------------------------------------10-------10-|
B|-12-10-8---12-10-8---12-10-8--------------------------------------10-8-10b(11)---10b(11)--|
G|---------9---------9---------9-7-9-7-9b(10)p9-7-9-7-9b(10)-7-9-12-------------------------|
D|------------------------------------------------------------------------------------------|
A|------------------------------------------------------------------------------------------|
E|------------------------------------------------------------------------------------------|

E|---------10----------10----------17-15---------15-----------------------------------------|
B|-10b(11)-----10b(11)-----9/11---------17-15-17----17-15h17~--------------12-10-8----------|
G|------------------------------15----------------------------------9~-9~----------9-7-9-7--|
D|----------------------------------------------------------------5-------------------------|
A|------------------------------------------------------------5-7---------------------------|
E|------------------------------------------------------------------------------------------|

E|----------------------------------------------------12~-12~-|
B|----------12-10-8-------------------------------------------|
G|-10~-10~-----------9-7-9-7-11~-11~-12~-12~-14~-14~----------|
D|------------------------------------------------------------|
A|------------------------------------------------------------|
E|------------------------------------------------------------|

Cuan Quijote creo mi camino

E|--------------|
B|--------------|
G|--------------|
D|-5-2-----5----|
A|-5-2-5-7----7-|
E|-3-0----------|

Lo escribo y lo vivo...

E|---------------------|
B|---------------------|
G|---------------------|
D|-------------------5-|
A|-------------5-7-7---|
E|-3-5-3-5-3-0---------|

No Pierdas tiempo en Lamentarse

E|--------------|
B|--------------|
G|--------------|
D|-5-2-----5----|
A|-5-2-5-7----7-|
E|-3-0----------|

No Importa caer si no Levantarse.

E|-------------------------|
B|-------------------------|
G|-------------------------|
D|-------------------------|
A|-------------7-5---------|
E|-3-5-3-5-3-0-----7-6-5-3-|

E|-------------------------------------|
B|-------------------------------------|
G|-7b(9)7-7b(9)7-----------------------|
D|-------------------------------------|
A|---------------5h7-5-----------------|
E|---------------------7-6-5-0-3-5-3-0-|

Realizo todo bien!!....

E|-------------------------------|
B|-------------------------------|
G|-------------------------------|
D|-7b(8)7-7b(8)7---------------5-|
A|-----------------------7-5-7---|
E|-----------------3-0-----------|

E|-------------------------------------|
B|-------------------------------------|
G|-7b(9)7-7b(9)7-----------------------|
D|-------------------------------------|
A|---------------5h7-5-----------------|
E|---------------------7-6-5-0-3-5-3-0-|

Realizo todo bien!!....

E|-------------------------------|
B|-------------------------------|
G|-------------------------------|
D|-7b(8)7-7b(8)7---------------5-|
A|-----------------------7-5-7---|
E|-----------------3-0-----------|

Esto mas veces y luego

Pura energia corre por mis venas

Cuan Quijote tengo Dulcinea...

E|--------------|
B|--------------|
G|--------------|
D|-5-2-----5----|
A|-5-2-5-7----7-|
E|-3-0----------|



E|---------------------|
B|---------------------|
G|---------------------|
D|-------------------5-|
A|-------------5-7-7---|
E|-3-5-3-5-3-0---------|



E|--------------|
B|--------------|
G|--------------|
D|-5-2-----5----|
A|-5-2-5-7----7-|
E|-3-0----------|



E|---------------|
B|---------------|
G|---------------|
D|---------------|
A|-------------4-|
E|-3-5-3-5-3-0---|
Otros videos de esta canción
    105 exhibiciones
      • ½ Tono
      • Am
      • Bbm
      • Bm
      • Cm
      • C#m
      • Dm
      • Ebm
      • Em
      • Fm
      • F#m
      • Gm
      • G#m
    • Agregar a la lista

    Afinação da cifra

    Afinador online

      Ops (: Contenido disponible solo en portugués.
      OK