Cifra Club

Selfie

Chancho En Piedra

Cifrado: Principal (guitarra y guitarra eléctrica)
Selo Cifra Club: esta cifra foi revisada para atender aos critérios oficiais da nossa Equipe de Qualidade.
tono: Am
   Em           G
E|--7---| e|--10---|
B|--8---| B|--12---|
G|--9---| G|--12---|
D|--9---| D|--12---|
A|--x---| A|---x---|
E|--x---| E|---x---|

   Em2           A
E|--10---| e|---9---|
B|---8---| B|--10---|
G|---9---| G|---9---|
D|---x---| D|---x---|
A|---x---| A|---x---|
E|---x---| E|---x---|

El rasgueo se lo dan ustedes, con todo su funk ;)

Riff:

E|-----------------|
B|-----------------|
G|-----------------|
D|--------5--------|
A|-7---5-----7--5--|
E|---7-------------|

*Al tocar el intro y el coro deben tocar el riff de arriba.

Fincoro:

E|-----------|
B|-----------|
G|-----------|
D|-----------|
A|-7---7--5--|
E|---7-------|


[Como hago yo la "improvisación"]:
Nota: Estoy segurísimo de que así no es...
Esto es mucho más simple
Pero suena bien :P

E|----------------------|
B|----------------------|
G|----------------------|
D|-7-5---5--------------|
A|-----7----------7-5---|
E|----------5-8-5-----5-|


Intro

Riff x3 A# x2


Em        G Em         G
¡Sel..fie!, ¡sel...fie!
Em        G Em         G
¡Sel..fie!, ¡sel...fie!


         Am
Este soy yo es mi avatar
En esta foto salgo sensacional
             Em
Y aquí estoy yo frente a la Mona Lisa       G
¿No es cierto que es mucho mejor mi sonrisa?


       Am
No recuerdo cuándo fue ni con quién estaba yo
Mi cara es siempre el centro de atención
Em
Yo, con mis recuerdos
Pero no me acuerdo, son todos igual


Riff      Riff
¡Mírame!, ¡mírame a mí!
Riff      Riff
¡Mírame!, ¡mírame a mí!
Riff                Riff
¡Mírame!, ¡Mírame!, ¡Mírame!, ¡Mírame!
Fincoro             (Improvisación)
¡Mírame a mí!


        Am
Esto es lo que hoy me comí
Y este es un famoso que encontré por ahí
          Em
Y aquí estoy yo en un recital          G
Da lo mismo de quién sólo fui a figurar


       Am
No recuerdo cuándo fue ni con quién estaba yo
Mi cara es siempre el centro de atención
Em
Yo, mis recuerdos, no me acuerdo
Son todos igual


Riff      Riff
¡Mírame!, ¡mírame a mí!
Riff      Riff
¡Mírame!, ¡mírame a mí!
Riff                Riff
¡Mírame!, ¡Mírame!, ¡Mírame!, ¡Mírame!
Fincoro             (Improvisación)
¡Mírame a mí!


Bajo:

              x2           (solo en la segunda vuelta)
G|--------------------------| G|--------|
D|--------------------------| D|--------|
A|--------------------------| A|--5h7h5-|
E|--0-2-3---2-3-5--0-2-3----| E|--------|

              x2
G|--------------------------|
D|--------------------------|
A|--------------------------|
E|--0-2-3---2-3-5--0-2-3----|

(Acompañado del bajo de arriba)

Em        G Em         G
¡Sel..fie!, ¡sel...fie!
Em        G          Em2 A (Fanfarria)
¡Sel..fie!, ¡SELFIE!

Solo:
E|--------------------------------------|
B|--------------------------------------|
G|-7-7-7^-5~----5-----5-----------------|
D|------------7---7~----7---5h7h5h7h5h7~|
A|--------------------------------------|
E|--------------------------------------|

E|-------10-9---9----8~--8-5-----5~----|
B|----8--8--8-----8--8-------8-8-------|
G|-/9----9--9--------9-----------------|
D|-------------------------------------|
A|-------------------------------------|
E|-------------------------------------|

G  F     G
Mírame a mí
G                     F       G
Soy la versión de mi foto perfil
G       F          G
Más importante que ser
G          F        G    G G
Hoy en día es el parecer

Riff      Riff
¡Mírame!, ¡mírame a mí!
Riff      Riff
¡Mírame!, ¡mírame a mí!
Riff                Riff
¡Mírame!, ¡Mírame!, ¡Mírame!, ¡Mírame!
Fincoro             (Improvisación)
¡Mírame a mí!
Otros videos de esta canción
    4 exhibiciones
      • ½ Tono
      • Am
      • Bbm
      • Bm
      • Cm
      • C#m
      • Dm
      • Ebm
      • Em
      • Fm
      • F#m
      • Gm
      • G#m
    • Agregar a la lista

    Afinação da cifra

    Afinador online

      Ops (: Contenido disponible solo en portugués.
      OK