Cifra Club

Ska del peral

Chancho En Piedra

Cifrado: Principal (guitarra y guitarra eléctrica)
Selo Cifra Club: esta cifra foi revisada para atender aos critérios oficiais da nossa Equipe de Qualidade.
tono: Am
    Am     C      G       C        D      E       Em       A *
E|---5---|---8---|---3---|---3---|---5---|---7---|---7---|---17--|
B|---5---|---8---|---3---|---5---|---7---|---9---|---8---|---17--|
G|---5---|---9---|---4---|---5---|---7---|---9---|---9---|---17--|
D|---7---|---10--|---5---|---5---|---7---|---9---|---9---|---x---|
A|---7---|---10--|---5---|---3---|---5---|---7---|---7---|---x---|
E|---5---|---8---|---3---|---3---|---5---|---7---|---7---|---x---|


INTRO:

En el intro, mientras suena el bajo, se marcan dos notas y luego un
pequeño punteo. Mientras se hace el punteo, se juega con esos acordes
tocandolo al estilo ska...

    Am      C       Am                      huaaa!!!
E|---5---|---8---|---5---|----------5--|
B|---5---|---8---|---5---|----------5--|
G|---5---|---9---|---5---|----------5--|
D|---7---|---10--|---7---|----------7--|
A|---7---|---10--|---7---|----------7--|
E|---5---|---8---|---5---|----------5--|

  Am -C -Am                  Am -C -Am 
E|-----------------------|----------------------------------------------------|
B|-----------------------|----------------------------------------------------|
G|-----------------------|----------------------------------------------------|
D|-5h7-5-----------------|-5h7-5----------------------------------------------|
A|-------7-5-5h7-3-5-3-0-|-------7-5-5h7-7h8-7-5-7--7h8-7-5-5h7-5-3-3h5-3-2-0-|
E|-----------------------|----------------------------------------------------|


Am      C                   Am 
Algo ha cambiado en nuestras vidas
                     G  
Desde que fue tu partida
                  Am 
Tu falta se hace notar
aquí en el peral.

Am          C            Am 
Tus amigos siempre te extrañamos
                   G  
Las locuras en el barro
                 Em 
Y tu gorro de Napoleón
                G  
Nunca tuvo un sucesor

                    C 
El más loco fuiste tú
     Am          G  
Y por eso te escapaste
                     Am 
Hacia el mundo que inventaste

Am            C          Am 
La enfermera tiene tus tornillos
                  G  
Junto al viejo cuadernillo
                 A 
Donde estaba la ecuación
Que te robó el doctor

Am           C             Am 
Tu camisa e` fuerza esta envuelta
                 G  
Esperando a que vuelvas
                Em 
Y tu gorro de Napoleón
               G  
Nunca tuvo un sucesor

                   C 
El más loco fuiste tú
     Am          G  
Y por eso te escapaste
                    Am 
Hacia el mundo que inventaste

C -D _E 
Y queremos que sepas
C -D -E 
(Queremos que sepas)
                     C -D -E 
Que anhelamos tu vuelta
(Anhelamos tu vuelta)
                     C -D -E 
Porque no hay un lugar
(No hay un lugar)
Como el Peral  uouuo!!!!


G  O:


E|-----------------------|
B|-----------------------|
G|-----------------------|
D|-5h7-5-----------------|
A|-------7-5-5h7-3-5-3-0-|
E|-----------------------|

E|-------------------------------------------------|
B|-------------------------------------------------|
G|-------------------------------------------------|
D|-5h7-5-------------------------------------------|
A|-------7-5-5h7--7h8-7-5-5h7--7h8-7-5-5h7-5-3-3h5-|
E|-------------------------------------------------|




E|-------------------------|
B|--8h10-8-----------------|
G|---------9-7-7h9-5-7-5---|
D|-----------------------7-|
A|-------------------------|
E|-------------------------|

E|----------------------------------------------------------|
B|-8h10-8---------------------------------------------------|
G|--------9-7-7h9--9h10-9-7-7h9--9h10-9-7-7h9-7-5-5h7-5-4---|
D|--------------------------------------------------------7-|
A|----------------------------------------------------------|
E|----------------------------------------------------------|

                              A *
La vez que tú más nos alegraste
Am                G  
Fue cuando regresaste
                  Em                  G  
Y el gorro de Napoleón se lo puso su dueño
                  C 
El más loco eres tú
       Am        G  
Y por eso regresaste
                     Am 
Y al peral nunca olvidaste
           G  
Y ganaste denuevo
                C 
El más loco eres tú
      Am         G  
Y por eso regresaste
                     Am 
Y al peral nunca olvidaste
                   G  
Porque el loco mas loco
                     Am 
Con los cuernos dura poco
                   G  
Porque el loco mas loco
                   Am 
Ya nunca más se irá.



Grande los chanchos...
fueron gran parte de mi época musical :)
y mi banda preferida.  VIva el rock! y el Funk!!!
Otros videos de esta canción
    89 exhibiciones
      • ½ Tono
      • Am
      • Bbm
      • Bm
      • Cm
      • C#m
      • Dm
      • Ebm
      • Em
      • Fm
      • F#m
      • Gm
      • G#m
    • Agregar a la lista

    Afinação da cifra

    Afinador online

      Ops (: Contenido disponible solo en portugués.
      OK