Cifra Club

Socio

Chancho En Piedra

Cifrado: Principal (guitarra y guitarra eléctrica)
Selo Cifra Club: esta cifra foi revisada para atender aos critérios oficiais da nossa Equipe de Qualidade.
tono: D


riff1 intro
E|--------------------------------------|
B|--------------------------------------|
G|--------------------------------------|
D|--7-7--7-7-7-7-10-10---7-7-7-7-10-10--|
A|--7-7--7-7-7-7-10-10---7-7-7-7-10-10--|
E|--5-5--5-5-5-5-8--8----5-5-5-5-8--8---|

E|--------------------------------------|
B|--------------------------------------|
G|--------------------------------------|
D|--7-7-7-7-10-10---7-7-7-7-11-11-------|
A|--7-7-7-7-10-10---7-7-7-7-11-11-------|
E|--5-5-5-5-8--8----5-5-5-5-9--9--------|

E|--------------------------------------|
B|--------------------------------------|
G|--------------------------------------|
D|--7-7-7-7-10-10---7-7-7-7-10-10-------|
A|--7-7-7-7-10-10---7-7-7-7-10-10-------|
E|--5-5-5-5-8--8----5-5-5-5-8--8--------|

E|--------------------------------------|
B|--------------------------------------|
G|--------------------------------------|
D|--7-7-7-7-10-10---7-7-7-7-11-11--7-7--|
A|--7-7-7-7-10-10---7-7-7-7-11-11--7-7--|
E|--5-5-5-5-8--8----5-5-5-5-9--9---5-5--|

riff2 (bajo)
E|----------------------------------------------|
B|----------------------------------------------|
G|----------------------------------------------|
D|----------------------------------------------|
A|----------------------------------------12----|
E|--/9--9-9-/10--10-10-/9--9-9-/10--10-12----10-|

verse riff2
E|--------------------------------------|
B|--------------------------------------|
G|--------------------------------------|
D|--------------------------------------|
A|--------------------------------------|
E|--/9---9---9---/10---10---10---/9-----|
tu lo sabes bien es mi amigo pato

E|-----------------------------------------|
B|-----------------------------------------|
G|-----------------------------------------|
D|-----------------------------------------|
A|-----------------------------12----------|
E|--/9--9--9--/10--10--10--12-----12--/9---|
cuyo afan es bailar con la verga afuera

E|------------------------------|
B|------------------------------|
G|------------------------------|
D|------------------------------|
A|------------------------------|
E|--9--9--/10--10--10---/9------|
a veces el no sabe bien

E|---------------------------------------------------|
B|---------------------------------------------------|
G|---------------------------------------------------|
D|---------------------------------------------------|
A|------------------------------------12-------------|
E|---9---9---9---/10---10---10---12---------12--/9---|
 si es que esta bien bailar con la verga afuera

riff3 x2

E|---------------------------------------|
B|--17b-17b-17b-15-15--17b-17b-17b-15-15-|
G|---------------------------------------|
D|---------------------------------------|
A|---------------------------------------|
E|---------------------------------------|

E|-----------------------------------|
B|-17b-17b-17b--15-17-15-17-15-20-17-|
G|-----------------------------------|
D|-----------------------------------|
A|-----------------------------------|
E|-----------------------------------|
bailando con la verga afuera

a veces cuando suena el bajo se escuchan como notas marcianas,
esas son algo asi y si no lo son inventa algo parecido
E|---------------15-19-17--15-17----15--|
B|--15-17-15h17------------------17-----|
G|--------------------------------------|
D|--------------------------------------|
A|--------------------------------------|
E|--------------------------------------|

riff2
busca trabajo le dicen que no por temor a que
baile con la verga afuera algunos bailan bien
otros bailan mal pero solo el baila con la verga afuera

riff3
bailando con la verga afuera bailando con la verga afuera
tu lo sabes bien,es mi amigo pato (bailando con la verga afuera)
tu lo sabes bien,es mi amigo pato (bailando con la verga afuera)

riff4
E|---------------------------------------|
B|---------------------------------------|
G|---------------------------------------|
D|--7-7--7-7-10-10---------7-7--7-7-10---|
A|--7-7--7-7-10-10---------7-7--7-7-10---|
E|--5-5--5-5-8--8----------5-5--5-5-8----|
y yo no fui y yo no fui

E|---------------------------------------|
B|---------------------------------------|
G|---------------------------------------|
D|--7-7--7-7-10-10---------7-7--7-7-11---|
A|--7-7--7-7-10-10---------7-7--7-7-11---|
E|--5-5--5-5-8--8----------5-5--5-5-9----|
y yo no fui yo no fui riff2 tu lo sabes
bien es mi amigo pato cuyo afan es bailar
con la verga afuera a veces el no sabe bien
si es que esta bien bailar con la verga afuera

riff3
bailar con la verga afuera bailar con la verga afuera
u lo sabes bien es mi amigo pato (bailando con la verga afuera)
tu lo sabes bien es mi amigo pato (bailando con la verga afuera)
Otros videos de esta canción
    30 exhibiciones
      • ½ Tono
      • A
      • Bb
      • B
      • C
      • Db
      • D
      • Eb
      • E
      • F
      • F#
      • G
      • Ab
    • Agregar a la lista

    Afinação da cifra

    Afinador online

      Ops (: Contenido disponible solo en portugués.
      OK