Cifra Club

Vacaciones

Chancho En Piedra

Cifrado: Principal (guitarra y guitarra eléctrica)
Selo Cifra Club: esta cifra foi revisada para atender aos critérios oficiais da nossa Equipe de Qualidade.
tono: A
Intro (Bajo)x8
E|-----------------------------|
B|-----------------------------|
G|-----------------------------|
D|-----------------------------|
A|--6-----9--6-----6--9--8-----|
E|-----7--------7-----------9--|
E|-----------------------------|


Guitarra Electrica x4
E|----------------------------|
B|----------------------------|
G|----------------------------|
D|----------------------------|
A|--------2--0--------2--0----|
E|--4--0--------0--4--------2-|


E|----------------------------|
B|----------------------------|
G|----------------------------|
D|----------------------------|
A|--4---2--2--0------0--2--0--|
E|----------------2-----------|

Guitarra Solo
E|--------------------------------|
B|--9-----12--9-----9--12--11-----|
G|-----9---------9-------------11-|
D|--------------------------------|
A|--------------------------------|
E|--------------------------------|




  E             A        B 
Vacaciones, por favor exijo
hazlo pronto, el doctor me dijo
muy cansado estoy de trabajar
si no paro aquí voy a explotar

  E             A       B 
Vacaciones, vacaciones pido
estresante este tiempo a sido
quiero escapar de esta ciudad
relajarme ya en cualquier lugar

 D           E7 
Pero cuando llego allá
 D           E7     A7 
solo quiero regresar

  E             A        B 
Emociones, experiencias nuevas
hace tiempo mi cabeza sueña
con descansar y disfrutar
de un bosque austral o cerca del mar

  E             A        B 
Diversiones en exceso quiero
hacer nada, darme un recreo
quiero un festín que no tenga fin
quiero despertar lejos de aquí

 D           E7 
Pero cuando llego allá
 D           E7     A7 
solo quiero regresar

  E             A        B 
No hay nada como el hogar
cuando voy a otro lugar
pero estando en mi hogar
sueño con otro lugar

 D                E7 
Yo solo quiero despertar
                        A7 
partir lejos de aquí y no regresar

  E             A        B 
No hay nada como el hogar
cuando voy a otro lugar
pero estando en mi hogar
sueño con otro lugar
Otros videos de esta canción
    19 exhibiciones
      • ½ Tono
      • A
      • Bb
      • B
      • C
      • Db
      • D
      • Eb
      • E
      • F
      • F#
      • G
      • Ab
    • Agregar a la lista

    Afinação da cifra

    Afinador online

      Ops (: Contenido disponible solo en portugués.
      OK