Cifra Club

Como Tudo Deve Ser

Charlie Brown Jr.

Cifrado: Principal (guitarra y guitarra eléctrica)
Selo Cifra Club: esta cifra foi revisada para atender aos critérios oficiais da nossa Equipe de Qualidade.
tono: A
[Intro] 

[Riff] 

Parte 1 de 2

E|---------------------------------------------------------|
B|----------------2----------------------------------------|
G|----------------------4----------------------------------|
D|-------6---4h6--------------6-4-2----4---2h4-------------|
A|----4------------------------------4---4-----------------|
E|-5------5-------2--2-----2-------------------------------|

Parte 2 de 2

E|---------------------------------------------------------|
B|---------------------------------------------------------|
G|-4---2-----1-2-1-----------------------------------------|
D|---------------------------------------------------------|
A|---------------------------------------------------------|
E|-0-0---0--------------4/5--------------------------------|

[Solo] 

Parte 1 de 3

E|---------------------------------------------------------|
B|-----5-4-----------------2-------------2-----------------|
G|---4------6-4--------1h4---4p1-----4---------------------|
D|--------------6---6------------4/6---2---2/4---6---------|
A|-4--------------4----------------------------4---4-------|
E|-----------------------------0---------------------------|

Parte 2 de 3

E|---------------------------------------------------------|
B|---------5p4---------------------------------------------|
G|-----4-6-----4---4---------------------------------------|
D|-6-6-----------6-----------------------------------------|
A|---------------------------------------------------------|
E|---------------------------------------------------------|

Parte 3 de 3

E|---------------------------------------------------------|
B|---------5p4---------------------------------------------|
G|-----4-6-----4---4----4/6--------------------------------|
D|-6-6-----------6-----------------------------------------|
A|---------------------------------------------------------|
E|---------------------------------------------------------|

[Primeira Parte] 

[Riff - Intro]

Um belo sonho veio então despertar minha vontade
Tudo vale a pena para te reencontrar
Me livrei de tudo aquilo e consegui mudar
Tudo que foi feito em troca de uma amizade mas 
Felicidade é poder estar 
Com quem você gosta em algum lugar 
É foda ser louco, advogado do mundo mas 
Como tudo deve ser?
É foda ser taxado de doido, vagabundo mas 
Como tudo deve ser?

[Refrão]

E|-7---7---7-----------------------------------------------|
B|-9---9---9---x--9--x---10--------------------------------|
G|-9---9---9---x--9--x---9---------------------------------|
D|-------------x--9--x---9---------------------------------|
A|-9---9---9---x--0--x---0---------------------------------|
E|---------------------------------------------------------|

Foi quando te encontrei
Ouvindo um som e olhando o mar
Foi quando te encontrei
Ouvindo o som do mar rolar

[Segunda Parte] 

[Riff -Intro]

Eu não nasci ontem, nem quando, como por onde mas 
Como tudo deve ser, com as balizas do nosso sistema
Sigo imprimindo meu sonho na história 
Como tudo deve ser
Um belo sonho veio então despertar minha vontade
Tudo vale a pena para te reencontrar
Me livrei de tudo aquilo e consegui mudar
Tudo que foi feito em troca de uma amizade mais

[Refrão]

E|-7---7---7-----------------------------------------------|
B|-9---9---9---x--9--x---10--------------------------------|
G|-9---9---9---x--9--x---9---------------------------------|
D|-------------x--9--x---9---------------------------------|
A|-9---9---9---x--0--x---0---------------------------------|
E|---------------------------------------------------------|

Foi quando te encontrei
Ouvindo um som e olhando o mar
Foi quando te encontrei
Ouvindo o som do mar rolar

[Solo] 

Parte 1 de 8
 
E|---------------------------------------------------------|
B|-10/12-x-10p9-----10h12--10--9------10h12--10-9----------|
G|-9-/11-x-9----9----------------9----------------9--------|
D|-------x--------9----------------9----------------11-----|
A|-0-----x-9-----------------------------------------------|
E|-------------------------------9----------------0--------|

Parte 2 de 8

E|---------------------------------------------------------|
B|-----------------x--------------------------------x------|
G|------9-----9h11-x--11b-11p9-----------9-----9h11-x-11b--|
D|-9h11---11-------x------------11--9h11---11-------x------|
A|------------0----x------9-------------------------x------|
E|---------------------------------------------9-----------|

Parte 3 de 8

E|---------------------------------------------------------|
B|--------------------0h2----------0h2-------0h2-----------|
G|-11p9----------9-----------------------------------------|
D|------11--9h11---11------4-2-4-2-----4-2-4-----4-2-------|
A|--------------------0----------------------4-------------|
E|-0-------------------------------2-----------------------|

Parte 4 de 8

E|---------------------------------------------------------|
B|---------------------------------------------------------|
G|-4-2-4/6/8/9/11------------------------------------------|
D|---------------------------------------------------------|
A|---------------------------------------------------------|
E|-----0---------------------------------------------------|

Parte 5 de 8

E|---------------------------------------------------------|
B|-12----x--10p9------10h12--10-9-------10h12-10-9---------|
G|-------x--9----9----------------9----------------9-------|
D|-------x---------9-----------------9---------------11----|
A|-0-----x--9----------------------------------------------|
E|--------------------------------9----------------0-------|

Parte 6 de 8

E|---------------------------------------------------------|
B|-----------------x--------------------------------x------|
G|------9-----9h11-x--11b-11p9-----------9-----9h11-x------|
D|-9h11---11-------x------------11--9h11---11-------x------|
A|------------0----x------9-------------------------x------|
E|---------------------------------------------9-----------|

Parte 7 de 8

E|-------12~-------------0-------0---------2------------|
B|---------------12--------4-------4-------5-5----------|
G|-11/13------13-------------1-------1---1------4-------|
D|------------------------------------------------------|
A|-----------------------0------------------4-----------|
E|-------0----------------------2------2----------------|

Parte 8 de 8

E|--2-----------12--------------------------------------|
B|---5-----7----12--------------------------------------|
G|-----4/6---6------------------------------------------|
D|------------------------------------------------------|
A|--------------0---------------------------------------|
E|-0----------------------------------------------------|

[Refrão]

E|-7---7---7-----------------------------------------------|
B|-9---9---9---x--9--x---10--------------------------------|
G|-9---9---9---x--9--x---9---------------------------------|
D|-------------x--9--x---9---------------------------------|
A|-9---9---9---x--0--x---0---------------------------------|
E|---------------------------------------------------------|

Foi quando te encontrei
Ouvindo um som e olhando o mar
Foi quando te encontrei
Ouvindo o som do mar rolar

Foi quando te encontrei
Ouvindo um som e olhando o mar
Foi quando te encontrei
Ouvindo o som do mar rolar
      F#m7(11)
O mar
Otros videos de esta canción
    1.938.667 exhibiciones
    • Simplificar cifrado
      • ½ Tono
      • A
      • Bb
      • B
      • C
      • Db
      • D
      • Eb
      • E
      • F
      • F#
      • G
      • Ab
    • Agregar a la lista

    Afinación de cifrado

    Afinador online

      Capítulos
      • Início
      • Tocando a música
      • Dicas - Adaptação
      • Tocando Introdução e Primeira Parte
      • Introdução - Riff (Parte 1)
      • Introdução - Riff (Parte 2)
      • Introdução - Solo (Parte 1)
      • Introdução - Solo (Parte 2 e 3)
      • Tocando Refrão - Repetição
      • Ensinando Refrão
      • Dicas: Solo e Final
      • Tocando Solo - Final
      • Ensinando Solo - Parte 1 e 2
      • Ensinando Solo - Parte 3 e 4
      • Ensinando Solo - Parte 5 - 8
      • Encerramento
      OK