Cifra Club

Lugar Ao Sol

Charlie Brown Jr.

Tab de bajo: Principal
Acompaña nuestras novedades de Cifra Club en español.
¡Sigue nuestro perfil en Instagram!
Lugar Ao Sol - 100% Charlie Brown Jr.
Afinação: Standard (G,D,A,E,B)
Arranjo by: Caio Blasi e Gustavo Blasi

Intro
G-------------
D-------------
A-------------
E-------------
B-16\4------4-(16x)

Verso
G----------------------------------------------
D----------------------------------------------
A------------------------6-6-6--5-6-8-6-5------
E-3-3-3-3-3---1-1-1-1-1-------------------6-5-3   1x
B----------------------------------------------

G----------------------------------------------
D----------------------------------------------
A------------------------6-6-6--5-6-5----------
E-3-3-3-3-3---1-1-1-1-1---------------8-6-5----   1x
B----------------------------------------------

G----------------------------------------------
D----------------------------------------------
A------------------------6-6-6--5-6-8-6-5------
E-3-3-3-3-3---1-1-1-1-1-------------------6-5-3   1x
B----------------------------------------------

G----------------------------------------------
D----------------------------------------------
A-----------------------3\6--------------------
E-3-3-3-3-3---1-1-1-1-1------------------------   1x
B----------------------------------------------

Refrão
G---------------------------------------------------------
D------------------------------------------8-8-8-----8----
A---------------------------8-6-5--------3\6-6-6---6------
E-6-6-6-6-6-6-6-6-6-6-6-6-6--------3-3-3------------------   
B---------------------------------------------------------
                                                                 
G---------------------------------------------------------
D---------------------------------------------------------
A-----------------------6-6-6-6-6--8-8-8--10-10-10--------
E-6-6-6-6-6-6-6-6-6-6-6-----------------------------------   
B---------------------------------------------------------

G---------------------------------------------------------
D------------------------------------------8-8-8-----8----
A---------------------------8-6-5--------3\6-6-6---6------
E-6-6-6-6-6-6-6-6-6-6-6-6-6--------3-3-3------------------   
B---------------------------------------------------------
                                                                 
G---------------------------------------------------------
D---------------------------------------------------------
A-----------------------6-6-6-6-6--8-8-8--10-10-10--------
E-6-6-6-6-6-6-6-6-6-6-6-----------------------------------   
B---------------------------------------------------------

Verso 2 
G----------------------------------------------
D----------------------------------------------
A------------------------6-6-6--5-6-8-6-5------
E-3-3-3-3-3---1-1-1-1-1-------------------6-5-3   1x
B----------------------------------------------

G----------------------------------------------
D----------------------------------------------
A------------------------6-6-6--5-6-5----------
E-3-3-3-3-3---1-1-1-1-1---------------8-6-5----   1x
B----------------------------------------------

G----------------------------------------------
D----------------------------------------------
A------------------------6-6-6--5-6-8-6-5------
E-3-3-3-3-3---1-1-1-1-1-------------------6-5-3   1x
B----------------------------------------------

G----------------------------------------------
D----------------------------------------------
A-----------------------3\6\18---------------
E-3-3-3-3-3---1-1-1-1-1------------------------   1x
B----------------------------------------------

Refrão
G---------------------------------------------------------
D------------------------------------------8-8-8-----8----
A---------------------------8-6-5--------3\6-6-6---6------
E-6-6-6-6-6-6-6-6-6-6-6-6-6--------3-3-3------------------   
B---------------------------------------------------------
                                                                 
G---------------------------------------------------------
D---------------------------------------------------------
A-----------------------6-6-6-6-6--8-8-8--10-10-10--------
E-6-6-6-6-6-6-6-6-6-6-6-----------------------------------   
B---------------------------------------------------------

G---------------------------------------------------------
D------------------------------------------8-8-8-----8----
A---------------------------8-6-5--------3\6-6-6---6------
E-6-6-6-6-6-6-6-6-6-6-6-6-6--------3-3-3------------------   
B---------------------------------------------------------
                                                                 
G---------------------------------------------------------
D---------------------------------------------------------
A-----------------------6-6-6-6-6--8-8-8--10-10-10--------
E-6-6-6-6-6-6-6-6-6-6-6-----------------------------------   
B---------------------------------------------------------

Ponte
G----------------------------------------------
D----------------------------------------------
A------------------------6-6-6--5-6-8-6-5------
E-3-3-3-3-3---1-1-1-1-1-------------------6-5-3   1x
B----------------------------------------------

G----------------------------------------------
D----------------------------------------------
A------------------------6-6-6--5-6-5----------
E-3-3-3-3-3---1-1-1-1-1---------------8-6-5----   1x
B----------------------------------------------

G----------------------------------------------
D----------------------------------------------
A------------------------6-6-6--5-6-8-6-5------
E-3-3-3-3-3---1-1-1-1-1-------------------6-5-3   1x
B----------------------------------------------

G----------------------------------------------
D----------------------------------------------
A----------3\6--6x14---------------------------
E-3--3-1---------------------------------------   1x
B----------------------------------------------

Solo Guitarra
G----------------------------------------------
D----------1-1-1-1-1-1-1-----------------------
A-3-1-3-1-3------------------------------------
E----------------------------------------------   3x
B----------------------------------------------

G----------------------------------------------
D----------------------------------------------
A-3-3-2----------------------------------------
E------3-3-3-3-3-3-3-3-------------------------  1x
B----------------------------------------------

Final
G----------------------------------------------
D----------------------------------------------
A------------------------6-6-6--5-6-8-6-5------
E-3-3-3-3-3---1-1-1-1-1-------------------6-5-3   1x
B----------------------------------------------

G----------------------------------------------
D----------------------------------------------
A------------------------6-6-6--5-6-5----------
E-3-3-3-3-3---1-1-1-1-1---------------8-6-5----   1x
B----------------------------------------------

G----------------------------------------------
D----------------------------------------------
A------------------------6-6-6--5-6-8-6-5------
E-3-3-3-3-3---1-1-1-1-1-------------------6-5-3   1x
B----------------------------------------------

G----------------------------------------------
D----------------------------------------------
A----------3\6---------------------------------
E-3--3-1---------------------------------------   1x
B----------------------------------------------
Composición de Chorão / Marcão
Colaboración y revisión:
  • Gustavo Blasi
  • fxgjh
162 vistas

0 comentarios

Ver todos los comentarios

¿Lograste tocar?

5 Tocaron 3 Aún no

¡Graba un video tocando Lugar Ao Sol y envíanoslo!

00:00 / 00:00
Outros vídeos desta música
Repetir Calidad Automático
Outros vídeos desta música
00:00 / 00:00
Automático
OK