Cifra Club

Não Uso Sapato

Charlie Brown Jr.

Cifrado: Principal (guitarra y guitarra eléctrica)
tono: G
Intro:

      C             Em             D             C
E|--------------------------------------------------------|
B|---------0-1-3---------0-1-3---------0-1-3---------------|
G|---0-0-0---------0-0-0---------0-0-0---------------------| (4x)
D|-----------------------------0---------------0-0-0---0---|
A|-3-----------------------------------------3-------3---0-|
E|---------------0-----------------------------------------|

G        Am7        C
  Eu vou   mudar tudo que não me convém,
G                           D
hoje eu tenho tudo o que podia querer
        C
mas dinheiro não é tudo tenho muito a fazer.

      (2x)     G   Am7      C                G   D      C
E|---------|----------|----------------|----------|-7777-/-1010101010-|
B|-------8-|-888--888-|-121212--121212-|-888--777-|-xxxx---x-x-x-x-x--|
G|----7----|-xxx--xxx-|-x-x-x---x-x-x--|-xxx--xxx-|-5555---7-7-7-7-7--|
D|-5-------|-555--555-|-9-9-9---9-9-9--|-555--444-|-------------------|
A|---------|----------|----------------|----------|-------------------|
E|---------|----------|----------------|----------|-------------------|

    G                           Am7
Quem não respeita o pai, não respeita ninguém
            C
por que um homem de verdade vai ser pai também
G               D
Ame o seu pai, mesmo se ele for
   C
Um porco capitalista

(Refrão)

  G         D           C
Eu não sei   fazer poesia
           G          Am7 (Solo 1)  C
mais que se foda!

G                          D/F#        C
eu odeio gente chick e não uso sapato.
               G          Am7 (Solo 2)   C
mais que se foda!

Solo 1:

E|---------------------------|
B|--------0h1-0h1------------|
G|----------------0--------0-|
D|------------------0----0---|
A|-2/3-33--------------3-----|
E|---------------------------|

(solo 2)
E|---------------------------------|
B|---------------------------------|
G|---------------------------------|
D|-7/9--9/12-12--9-12-9------------|
A|----------------------12-10------|
E|---------------------------------|


(Intro)

G                         Am7
Hoje você picha, quem já te ajudou
   C
e vem falando mau de quem já te fortaleceu
       G                           D
Mas o mau vem em verdade e não se passa por palavras
  C
Você perdeu a moral e quem perdeu, perdeu.
    G                       Am7                   C
Se você pisar na bola ei rapaz você vai ser cobrado
    G                       D                   C
Se você pisar na bola ei muleque tu vai ser cobrado

Refrão:

 G         D           C
Eu não sei   fazer poesia
              G          Am7 (Solo 1) C
mais que se foda!
G                          D/F#        C
eu odeio gente chick e não uso sapato.
               G          Am7 (Solo 2) C
mais que se foda!

(G Am7 C) 4x (Palm-Muting)
Auê, auê, auê, auêêêêêêê...!!!!
Everybody move !!! Everybody move !!! Everybody move !!!
move !!!  move !!! moveeeee.... !!!

(Refrão)

 G         D           C
Eu não sei   fazer poesia
              G          Am7 (Solo 1) C
mais que se foda!
G                          D/F#        C
eu odeio gente chick e não uso sapato.
               G          Am7 (Solo 2) C
mais que se foda!

( Am7  C  Am7  C  G )

E|-------|-------| e|----|
B|-------|-------| B|----|
G|-------|-5-5-5-| (2x)   G|-4--| (1x)
D|-7-7-7-|-5-5-5-| D|-5--|
A|-7-7-7-|-3-3-3-| A|-5--|
E|-5-5-5-|-------| E|-3--|
Composición de Champignon / Chorão / Marcão / Pelado
954 vistas
    • ½ Tono
    • A
    • Bb
    • B
    • C
    • Db
    • D
    • Eb
    • E
    • F
    • F#
    • G
    • Ab
  • Agregar a la lista

    0 comentarios

    Ver todos los comentarios

    ¿Lograste tocar?

    31 Tocaron 5 Aún no

    ¡Graba un video tocando Não Uso Sapato y envíanoslo!

    00:00 / 00:00
    Outros vídeos desta música
    Repetir Calidad Automático
    Outros vídeos desta música
    00:00 / 00:00
    Automático
    OK