Cifra Club

Proibida Pra Mim

Charlie Brown Jr.

Cifrado: Principal (guitarra y guitarra eléctrica)
tono: Fm
[Intro] F5  C5  Bb5  Ab5
        F5  Bb5  F5  Bb5

E|------------------------------------------|
B|------------------------------------------|
G|--------------------------3/5-3-1---------|
D|-3-3-3-3-3-1-3-3--3-3-3-3----------3------|
A|------------------------------------------|
E|------------------------------------------|

E|------------------------------------------|
B|------------------------------------------|
G|--------------------------3/5-3-1---------|
D|-3-3-3-3-3-1-3-3--3-3-3-3----------3------|
A|------------------------------------------|
E|------------------------------------------|

E|------------------------------------------|
B|------------------------------------------|
G|--------------------------3/5-3-1---------|
D|-3-3-3-3-3-1-3-3--3-3-3-3----------3------|
A|------------------------------------------|
E|------------------------------------------|

E|------------------------------------------|
B|------------------------------------------|
G|--------------------------3/5-3-1--3/8----|
D|-3-3-3-3-3-1-3-3--3-3-3-3-----------------|
A|------------------------------------------|
E|------------------------------------------|
 
[Primeira Parte]

Eb                  Bb
   Ela achou meu cabelo engraçado
Cm               Ab
   Proibida pra mim NO WAY !
Eb                  Bb
   Disse que nao podia ficar
Cm                         Ab
   Mas levou a serio o que eu falei

[Pré-Refrão]

Eb               
   Eu vou fazer de tudo 
    Bb
Que eu puder
Cm                 
   Eu vou roubar 
         Ab
Essa mulher pra mim
Eb                 
   Eu posso te ligar 
    Bb
A qualquer hora
Cm             Ab
   Mas eu nem sei seu nome

[Refrão]

Eb                  
   Se nao eu 
          Bb
Quem vai fazer voce feliz ?
Cm               
   Se nao eu 
          Ab
Quem vai fazer voce feliz ?
  Eb
Guerra

( Bb  Cm  Ab )

Eb                  
   Se nao eu 
          Bb
Quem vai fazer voce feliz ?
Cm               
   Se nao eu 
          Ab
Quem vai fazer voce feliz ?
  Eb
Guerra

( Bb  Cm  Ab )
( F5  C5  Bb5  Ab5 )
( F5  Bb5  F5  Bb5 )

[Segunda Parte]

Eb                   Bb
   Eu me flagrei pensando em voce
Cm                          Ab
   Em tudo o que eu queria te dizer
Eb                     Bb
   Numa noite especialmente boa
Cm                              Ab
   Não a nada mais que a gente possa fazer

[Pré-Refrão]

Eb               
   Eu vou fazer de tudo 
    Bb
Que eu puder
Cm                 
   Eu vou roubar 
         Ab
Essa mulher pra mim
Eb                 
   Eu posso te ligar 
    Bb
A qualquer hora
Cm             Ab
   Mas eu nem sei seu nome

[Refrão]

Eb                  
   Se nao eu 
          Bb
Quem vai fazer voce feliz ?
Cm               
   Se nao eu 
          Ab
Quem vai fazer voce feliz ?
  Eb
Guerra

( Bb  Cm  Ab )

Eb                  
   Se nao eu 
          Bb
Quem vai fazer voce feliz ?
Cm               
   Se nao eu 
          Ab
Quem vai fazer voce feliz ?
  Eb
Guerra

( Bb  Cm  Ab )
( F5  C5  Bb5  Ab5 )
( F5  Bb5  F5  Bb5 )

[Refrão]

Eb                  
   Se nao eu 
          Bb
Quem vai fazer voce feliz ?
Cm               
   Se nao eu 
          Ab
Quem vai fazer voce feliz ?
  Eb
Guerra

( Bb  Cm  Ab )

Eb                  
   Se nao eu 
          Bb
Quem vai fazer voce feliz ?
Cm               
   Se nao eu 
          Ab
Quem vai fazer voce feliz ?
  Eb
Guerra

[Final] Bb  Cm  Ab 
        Ab5  G5  F5  Eb5
Composición de Chorão
6.350 vistas
  • Simplificar cifrado
    • ½ Tono
    • Am
    • Bbm
    • Bm
    • Cm
    • C#m
    • Dm
    • Ebm
    • Em
    • Fm
    • F#m
    • Gm
    • G#m
  • Agregar a la lista

    0 comentarios

    Ver todos los comentarios

    ¿Lograste tocar?

    104 Tocaron 14 Aún no

    ¡Graba un video tocando Proibida Pra Mim y envíanoslo!

    00:00 / 00:00
    Otros videos de esta canción
    Repetir Calidad Automático
    Otros videos de esta canción
    00:00 / 00:00
    Automático
    OK