Cifra Club

Vícios e Virtudes

Charlie Brown Jr.

Cifrado: Principal (guitarra y guitarra eléctrica)
tono: Ab
[Primeira Parte]
  
(Riff 1)
E|------------------------------------------|
B|------------------------------------------|
G|-10h12-----12--10h12-10-------------------|
D|-------13---------------13-10-13----------|
A|------------------------------------------|
E|------------------------------------------|

E|------------------------------------------|
B|------------------------------------------|
G|-10h12-13-12-10----10-12------------------|
D|----------------13-------13---------------|
A|------------------------------------------|
E|------------------------------------------|

     Eb9
Nem tudo lhe cai bem
      Bb
É um risco que se assume
        Db9                Ab
O bom é não iludir ninguém
     Eb9
Nem tudo lhe cai bem
      Bb
É um risco que se assume
         Db9               Ab
O bom é não iludir ninguém

          Eb9               Bb
Às vezes faço o que quero
          Db9                      Ab
Às vezes faço o que tenho que fazer
          Eb9               Bb
Às vezes faço o que quero
          Db9                      Ab
Às vezes faço o que tenho que fazer

[Pré-Refrão]

(Riff 2)
E|--------------------------------------|
B|------4--------4--------4--------4----|
G|----3---3----3---3----3---3----3---3--|
D|--------------------------------------|
A|--6-----------------4-----------------|
E|-----------6-----------------4--------|

E|--------------------------------------|
B|------4--------4--------4--------4----|
G|----3---3----3---3----3---3----3---3--|
D|--------------------------------------|
A|--6-----------------4-----------------|
E|-----------6-----------------4--------|

Eb5                Bb5
    Eu nunca tive muito a ver com ela
   Db5                      Ab5
O livro que ela ama eu não li
Eb5               Bb5
   Eu nunca tive muito a ver com ela
   Db5                        Ab5
O filme que ela adora eu não vi

Eb5                          Bb5
    Como chegar nela eu nem sei
                  Db5                      Ab5
Ela é tão interessante e eu aqui pichando muro
Eb5                          Bb5
    Como chegar nela eu nem sei
               Db5                     Ab5
Ela é tão diferente e eu igual a todo mundo

[Refrão]

Eb9         Bb              
    Logo eu,   que sempre achei 
   Db9           Ab
Legal ser tão errado
Eb9                Bb               
Eu que nem sempre calmo
            Db9      Ab
Mas nunca preocupado
Eb9         Bb              
    Logo eu,   que sempre achei 
   Db9           Ab
Legal ser tão errado
Eb9                Bb               
Eu que nem sempre calmo
            Db9      Ab
Mas nunca preocupado

Eb9         Bb              
    Logo eu,   que sempre achei 
   Db9           Ab
Legal ser tão errado
Eb9                Bb               
Eu que nem sempre calmo
            Db9      Ab
Mas nunca preocupado
Eb9         Bb              
    Logo eu,   que sempre achei 
   Db9           Ab
Legal ser tão errado
Eb9                Bb               
Eu que nem sempre calmo
            Db9      Ab
Mas nunca preocupado

[Solo] Cm  Bb  Ab  Cm  Bb  Ab

E|-------8-----------8----------------------|
B|-----8---8-------8---8--------------------|
G|---8-------8---8-------8------------------|
D|------------------------------------------|
A|------------------------------------------|
E|-8-----------6----------------------------|

E|------------------------------------------|
B|-------8-----------8----------------------|
G|-----8---8-------8---8--------------------|
D|---8-------8---8-------8------------------|
A|------------------------------------------|
E|-4-----------4----------------------------|

E|-------8-----------8----------------------|
B|-----8---8-------8---8--------------------|
G|---8-------8---8-------8------------------|
D|------------------------------------------|
A|------------------------------------------|
E|-8-----------6----------------------------|

E|------------------------------------------|
B|-------8-----------8----------------------|
G|-----8---8-------8---8--------------------|
D|---8-------8---8-------8------------------|
A|------------------------------------------|
E|-4-----------4----------------------------|

[Primeira Parte]
  
(Riff 1)
E|------------------------------------------|
B|------------------------------------------|
G|-10h12-----12--10h12-10-------------------|
D|-------13---------------13-10-13----------|
A|------------------------------------------|
E|------------------------------------------|

E|------------------------------------------|
B|------------------------------------------|
G|-10h12-13-12-10----10-12------------------|
D|----------------13-------13---------------|
A|------------------------------------------|
E|------------------------------------------|

     Eb9
Nem tudo lhe cai bem
      Bb
É um risco que se assume
        Db9                Ab
O bom é não iludir ninguém
     Eb9
Nem tudo lhe cai bem
      Bb
É um risco que se assume
         Db9               Ab
O bom é não iludir ninguém

          Eb9               Bb
Às vezes faço o que quero
          Db9                      Ab
Às vezes faço o que tenho que fazer
          Eb9               Bb
Às vezes faço o que quero
          Db9                      Ab
Às vezes faço o que tenho que fazer

[Pré-Refrão]

(Riff 2)
E|--------------------------------------|
B|------4--------4--------4--------4----|
G|----3---3----3---3----3---3----3---3--|
D|--------------------------------------|
A|--6-----------------4-----------------|
E|-----------6-----------------4--------|

E|--------------------------------------|
B|------4--------4--------4--------4----|
G|----3---3----3---3----3---3----3---3--|
D|--------------------------------------|
A|--6-----------------4-----------------|
E|-----------6-----------------4--------|

Eb5                    Bb5             
Um dia eu volto pra fazer 
             Db5      Ab5
Só a sua vontade, mas
             Eb5                   
Se eu não puder fazer você 
          Bb5
Ser a pessoa mais feliz
          Db5                 Ab5
Eu chego mais perto disso possível

 Eb5              Bb5             
Todos os inconvenientes 
           Db5  Ab5
A nosso favor
       Eb5           Bb5
E diferenças sim, mas
         Db5                  Ab5
Nunca maiores do que o nosso valor

[Refrão]

Eb9         Bb              
    Logo eu,   que sempre achei 
   Db9           Ab
Legal ser tão errado
Eb9                Bb               
Eu que nem sempre calmo
            Db9      Ab
Mas nunca preocupado
Eb9         Bb              
    Logo eu,   que sempre achei 
   Db9           Ab
Legal ser tão errado
Eb9                Bb               
Eu que nem sempre calmo
            Db9      Ab
Mas nunca preocupado

Eb9         Bb              
    Logo eu,   que sempre achei 
   Db9           Ab
Legal ser tão errado
Eb9                Bb               
Eu que nem sempre calmo
            Db9      Ab
Mas nunca preocupado
Eb9         Bb              
    Logo eu,   que sempre achei 
   Db9           Ab
Legal ser tão errado
Eb9                Bb               
Eu que nem sempre calmo
            Db9      Ab
Mas nunca preocupado

( Eb )

[Ponte]

Bb5                   Db5         
O tempo às vezes é alheio 
            Ab5
A nossa vontade, mas
            Bb5                    
Só o que é bom dura tempo 
      Db5            Ab5
O bastante pra se tornar inesquecível

( Bb5  Db5  Ab )
  
  Bb5          Db5      Ab
Qual será o defeito da fala 
                  Bb5
Se a tua boca me cala
             Db5      Ab
Nós dois deitados na sala
Composición de Chorão / Luiz Carlos Jr. Leao Duarte / Marcão / Pelado
1.551 vistas
    • ½ Tono
    • A
    • Bb
    • B
    • C
    • Db
    • D
    • Eb
    • E
    • F
    • F#
    • G
    • Ab
  • Agregar a la lista

    0 comentarios

    Ver todos los comentarios

    ¿Lograste tocar?

    36 Tocaron 4 Aún no

    ¡Graba un video tocando Vícios e Virtudes y envíanoslo!

    00:00 / 00:00
    Outros vídeos desta música
    Repetir Calidad Automático
    Outros vídeos desta música
    00:00 / 00:00
    Automático
    OK