Cifra Club

Aprenda

Zóio de Lula

Charlie Brown Jr.

Tablatura: Principal (guitarra)
tono: C#m
[Intro] C#m  G#m  
        C#m  G#m 
        C#m  G#m 
        C#m  G#m 

(Guitarra 1)

E|-----4----------4----------4----------4-------------|
B|-----5----------5----------4----------4-------------|
G|-----6----------6----------4----------4-------------| (8x)
D|----------------------------------------------------|
A|----------------------------------------------------|
E|----------------------------------------------------|

(Guitarra 2)

E|-21......................---------------------------|
B|----------------------------------------------------|
G|----------------------------------------------------|
D|----------------------------------------------------|
A|----------------------------------------------------|
E|----------------------------------------------------|

E|-9~-----------------------------12~---------------9-|
B|-9~-----------------------------14~-------------9---|
G|-9~-----------------------------13~-----------------|
D|----------------------------------------------------|
A|----------------------------------------------------|
E|----------------------------------------------------|

[Primeira Parte]

(Guitarra 2)

E|---9~------------------------------12~--------------|
B|---9~------------------------------14~--------------|
G|---9~-------------4/6-4~-----------13~--------------| (2x)
D|------------4h6-------------------------------------|
A|----------------------------------------------------|
E|----------------------------------------------------|

         C#m
Tirou a roupa entrou no mar
            G#m
Pensei meu Deus que bom que fosse
    C#m
Tu me apresenta essa mulher
       G#m                C#m
Meu irmão te dava até um doce
                   G#m
Sem roupa ela é demais
                     C#m
Também por isso eu creio em Deus

Meu Bom, Meu Deus
     G#m
Meu Bom, me trás

              C#m
Ainda bem que eu trouxe
             G#m
Até meu guarda-sol
       C#m
Tenho toda tarde
                G#m
Tenho a vida inteira
             C#m
Já se foi aquele tempo
              G#m
Da ladeira irmão
                 C#m
Já que se foi aquele tempo
              G#m
Da ladeira irmão

[Pré-Refrão]

    C#m                              B5(9)
E|--4-------------------------------------------------|
B|--4---------4-------4------------------2------------|
G|--6-----------6-------6------------------4----------|
D|--6-------------6-------6------------4-----4--------|
A|--4--------------------------------2----------------|
E|----------------------------------------------------|

    C#m                           B5(9)
E|--4---------------------------------------4---------|
B|--4---------4-------4---------------5--7----5-------|
G|--6-----------6-------6---------4h6-----------6-----|
D|--6-------------6-------6---------------------------|
A|--4-------------------------------------------------|
E|----------------------------------------------------|

          C#m
Meu escritório é na praia
       B5(9)
Eu tô sempre na área
            C#m              B5(9)
Mas eu não sou da tua láia não
          C#m
Meu escritório é na praia
       B5(9)
Eu tô sempre na área
            C#m                  B5(9)
Mas eu não sou daquela tua láia não

[Refrão]

         C#m           B5(9)      C#m             B5(9)
E|----------------------------------------------------|
B|----------------------------------------------------|
G|----------------------------------------------------|
D|-------------------------------------------------6--|
A|-------4-4-4---6-7-6------------4-4-4---6-7-6-------|
E|-4--7----------------7-7---4--7----------------7----|

 C#m          B5(9)
Deixe viver, deixe ficar
 C#m             B5(9)
Deixe estar como está
 C#m          B5(9)
Deixe viver, deixe ficar
 C#m             B5(9)
Deixe estar como está

[Segunda Parte]

     C#m
Meu Deus me dê um motivo
         G#m
Pois eu pago tanto mico
C#m
Ela me ignora
        G#m
Na esperança eu ainda fico
    C#m
Eu tô fritando aqui eu vou entregar
       G#m
Não aguento mais
               C#m
Mas se eu não falar hoje
        G#m
Talvez nunca a veja mais

   C#m                  G#m
O dia passa horas se estendem
       C#m                      G#m
As pessoas ao redor nunca me entendem
   C#m                     G#m
O dia passa horas se estendem
       C#m                      G#m
As pessoas ao redor nunca me entendem, então

[Refrão]

 C#m          B5(9)
Deixe viver, deixe ficar
 C#m             B5(9)
Deixe estar como está
 C#m          B5(9)
Deixe viver, deixe ficar
 C#m             B5(9)
Deixe estar como está

 C#m          B5(9)
Deixe viver, deixe ficar
 C#m             B5(9)
Deixe estar como está
 C#m          B5(9)
Deixe viver, deixe ficar
 C#m             B5(9)
Deixe estar como está

[Solo] 

E|-----------9----------------------------------------|
B|---------9---9--12--12b14~--------------------------|
G|--11b13---------------------------------------------|
D|----------------------------------------------------|
A|----------------------------------------------------|
E|----------------------------------------------------|
 
E|--11h12p11---------11h12p11-------------------------|
B|----------------------------12----------------------|
G|-------------------------------11--9--8-------------|
D|----------------------------------------------------|
A|----------------------------------------------------|
E|----------------------------------------------------|

E|----------4-------4h5p4-----------------------------|
B|----4h5h7---------------7---------------------------|
G|--4-------------------------------------------------|
D|----------------------------------------------------|
A|----------------------------------------------------|
E|----------------------------------------------------|

E|---4h5r4--------------------------------------------|
B|---------7-5-4h5p4---4------------------------------|
G|-------------------6---6p4---4-4h6------------------|
D|---------------------------6------------------------|
A|----------------------------------------------------|
E|----------------------------------------------------|

[Segunda Parte]

   C#m                  G#m
O dia passa horas se estendem
       C#m                      G#m
As pessoas ao redor nunca me entendem
   C#m                     G#m
O dia passa horas se estendem
       C#m                      G#m
As pessoas ao redor nunca me entendem, então

[Primeira Parte]

         C#m
Tirou a roupa entrou no mar
            G#m
Pensei meu Deus que bom que fosse
    C#m
Tu me apresenta essa mulher
       G#m                C#m
Meu irmão te dava até um doce
                   G#m
Sem roupa ela é demais
                     C#m
Também por isso eu creio em Deus

Meu Bom, Meu Deus
     G#m
Meu Bom, me trás

              C#m
Ainda bem que eu trouxe
             G#m
Até meu guarda-sol
       C#m
Tenho toda tarde
                G#m
Tenho a vida inteira
             C#m
Já se foi aquele tempo
              G#m
Da ladeira irmão
                 C#m
Já que se foi aquele tempo
              G#m
Da ladeira irmão

[Pré-Refrão]

          C#m
Meu escritório é na praia
       B5(9)
Eu tô sempre na área
            C#m              B5(9)
Mas eu não sou da tua láia não
          C#m
Meu escritório é na praia
       B5(9)
Eu tô sempre na área
            C#m                  B5(9)
Mas eu não sou daquela tua láia não

[Refrão]

 C#m          B5(9)
Deixe viver, deixe ficar
 C#m             B5(9)
Deixe estar como está
 C#m          B5(9)
Deixe viver, deixe ficar
 C#m             B5(9)
Deixe estar como está

 C#m          B5(9)
Deixe viver, deixe ficar
 C#m             B5(9)
Deixe estar como está
 C#m          B5(9)
Deixe viver, deixe ficar
 C#m             B5(9)
Deixe estar como está

[Final] C#m  B5(9)
        C#m  B5(9)
        C#m  B5(9)
        C#m  B5(9)
Composição de Champ!
11.970 reproducciones
  • Simplificar cifra
    • ½ Tono
    • Am
    • Bbm
    • Bm
    • Cm
    • C#m
    • Dm
    • Ebm
    • Em
    • Fm
    • F#m
    • Gm
    • G#m
  • Adicionar à lista

    0 comentarios

    Ver todos os comentários
    00:00 / 00:00
    outros vídeos desta música
    repetir qualidade Automático
    Outros vídeos desta música
    00:00 / 00:00
    Automático
    Capítulos
    • Início
    • Acordes da música
    • Tocando a música
    • Ensinando o ritmo (Reggae)
    • Encerramento
    OK