Cifra Club

Aprenda

Nos Siguen Pegando Abajo

Charly Garcia

Tablatura: Principal (guitarra)
tono: A
[Intro]

E|----------------------------------------------------------|
B|----------------------------------------------------------|
G|---------2-2-2--2-2---------------------------------------|
D|---------0-0-0--2-2--2--2---------------------------------|
A|--5-5-5--------------2--2---------------------------------|
E|--3-3-3---------------------------------------------------|

E|------------------------------------------------------------|
B|------------------------------------------------------------|
G|-----------2-2-2--2-2---------------------------------------| X3
D|-----------0-0-0--2-2--2--2---------------------------------|
A|--4/5-5-5--------------2--2---------------------------------|
E|--2/3-3-3---------------------------------------------------|

G
Ella es menor
D
El es normal
   A
Y lo que estan haciendo
          E
Es un pecado mortal

G
Ella se quedó
     D
Sin boda ni arroz
     A
Y al novio lo agarraron
      E
Entre mucho más que dos

C9
Miren lo estän golpeando
         G9
Todo el tiempo
   D7/B                    E    D
Lo vuelven, vuelven a golpear
C9           G9      Dsus4
Nos siguen pegando abajo

Yo estaba en el club
No habïa casi luz
La puerta de salida
Tenïa un farolito azul
El se desmayö
Delante de mï
No fueron las pastillas
Fueron los hombres de gris

G                 D
Ma, ma, ma, estoy yëndome
     A               E
Soy como una luz apagändose
G                  D
Desde el piso los pude ver
       A             E
Locos de placer, alejändose
C9                                 G9                          
Miren lo estän golpeando todo el tiempo
Colaboración y revision:
  • Traficante Doberman
  • fernando
4.103 reproducciones
    • ½ Tono
    • A
    • Bb
    • B
    • C
    • Db
    • D
    • Eb
    • E
    • F
    • F#
    • G
    • Ab
  • Adicionar à lista

    0 comentarios

    Ver todos os comentários

    ¿Conseguiste tocar?

    0 Tocaram 1 Ainda não

    Grave um vídeo tocando Nos Siguen Pegando Abajo e nos envie!

    00:00 / 00:00
    outros vídeos desta música
    repetir qualidade Automático
    Outros vídeos desta música
    00:00 / 00:00
    Automático
    OK