Cifra Club

Rezo Por Vos

Charly Garcia

Chords: Principal (acoustic and electric guitars)
tone: D
[Intro] D  Am

   D                Am
E|---2------2/3/2----------------------------------|
B|-----3----------3---1-3---1-3-3------------------|
G|-2-----2------~---2-----2------------------------|
D|-------------------------------------------------|
A|-------------------------------------------------|
E|-------------------------------------------------|

 D
La indómita luz
         G
Se hizo carne en mi
D                        Em
Y lo deje todo por esta soledad
G
Y leo revistas
       Am
En la tempestad
 Bm
Hice el sacrificio
     Am        Bm
Abrace la cruz al amanecer

Rezo,rezo,rezo,rezo

( D  Am )

E|---2------2/3/2----------------------------------|
B|-----3----------3---1-3---1-3-3------------------|
G|-2-----2------~---2-----2------------------------|
D|-------------------------------------------------|
A|-------------------------------------------------|
E|-------------------------------------------------|

   D
Morí sin morir
          G
Y me abrace al dolor
D                        Em
Y lo deje todo por esta soledad

G
Y leo rvistas 
           Am
En la tempestad
 Bm
Mi cuerpo se cae
      Am         Bm
Solo veo la cruz al amanecer

Rezo, rezo, rezo, rezo por vos

 D  Am
E|---2------2/3/2----------------------------------|
B|-----3----------3---1-3---1-3-3------------------|
G|-2-----2------~---2-----2------------------------|
D|-------------------------------------------------|
A|-------------------------------------------------|
E|-------------------------------------------------|

A
Y quemé las cortinas
           G
Y me encendí de amor
A
Y curé mis heridas
           G          
Y me encendí de amor
     A      D
De amor sagrado

( D  Am )

E|---2------2/3/2----------------------------------|
B|-----3----------3---1-3---1-3-3------------------|
G|-2-----2------~---2-----2------------------------|
D|-------------------------------------------------|
A|-------------------------------------------------|
E|-------------------------------------------------|

( D/F#  G  Am  C )

         Bm
Y entonces
C
Y entonces
Bm         C D
Y entonces rezo
G4
Rezo por vos
C
Rezo
     G
Rezo por vos

A
Y quemé las cortinas
           G
Y me encendí de amor
A
Y curé mis heridas
           G          
Y me encendí de amor
     A      D
De amor sagrado

 D  Am
E|---2------2/3/2----------------------------------|
B|-----3----------3---1-3---1-3-3------------------|
G|-2-----2------~---2-----2------------------------|
D|-------------------------------------------------|
A|-------------------------------------------------|
E|-------------------------------------------------|

Rezo, rezo, rezo, rezo por vos
00:00 / 00:00
Other videos of this song
Repeat
Other videos of this song
Composed by Charly García. Charly García / Luis Alberto Spinetta
Collaboration and Review:
24.152 views
    • ½ Tone
    • A
    • Bb
    • B
    • C
    • Db
    • D
    • Eb
    • E
    • F
    • F#
    • G
    • Ab
  • Add to list
    00:00 / 00:00
    OK