Cifra Club

Rezo Por Vos

Charly García

Cifrado: Principal (guitarra y guitarra eléctrica)
Selo Cifra Club: esta cifra foi revisada para atender aos critérios oficiais da nossa Equipe de Qualidade.
tono: D
[Intro] D5  Riff 1
        D  G  D  G
        D  G  D  G

[Tab - Riff 1]

E|------------------------------------------|
B|-7-----7h8-7------------------------------|
G|---7---------7----------7----------7-7----| (10x)
D|-----7---------7-9/10-----7-9/10----------|
A|------------------------------------------|
E|------------------------------------------|

[Primeira Parte]

[Tab - Riff 2]

E|------------------------------------------|
B|------------------------------------------|
G|------------------------------------------|
D|-----0------------------------------------|
A|-0-2----2---------------------------------|
E|------------------------------------------|

D                           G          Riff 2
  La indómita luz, se hizo carne en mi
D                          Em
  Y lo deje todo por esta soledad
G                        Am7
  Y leo revistas, en la tempestad
Bm7
    Hice el sacrificio
     Am7       Bm7
Abrace la cruz al amanecer

[Refrão]

( Riff 1 )

   D  G  D   G
Rezo,   rezo
 D    G  D   G
Rezo,   rezo

[Segunda Parte]

D                             G        Riff 2
  Morí sin morir, y me abrace al dolor
D                          Em
  Y lo deje todo por esta soledad
G                                 Am7
  Ya se hizo de noche, y ahora estoy aquí
Bm7
    Mi cuerpo se cae
      Am7        Bm7
Solo veo la cruz al amanecer

[Refrão]

( Riff 1 )

   D  G  D   G
Rezo,   rezo
 D   G           D  G
Rezo,  rezo por vos

[Ponte 1]

A
  Y curé mis heridas
           G
Y me encendí de amor
A
  Y quemé las cortinas
           G          
Y me encendí de amor
     A      D   Riff 1
De amor sagrado

( D  G  D  G )

[Ponte 2]

[Tab - Ponte 2]

E|------------------------------------------|
B|------------------------------------------|
G|------------------------------------------|
D|------------------------------------------|
A|---------------2-3----2----3----2----3----|
E|-2----3----5------------------------------|

           Bm7 C
Y entonces
           Bm7 C
Y entonces

( Riff 1 )

           D  G
Y entonces
           D  G
Y entonces
           D  G
Y entonces
           D  G
Y entonces

[Ponte 1]

A
  Y curé mis heridas
           G
Y me encendí de amor
A
  Y quemé las cortinas
           G          
Y me encendí de amor
     A      D   Riff 1
De amor sagrado

( D  G  D  G )

[Refrão]

 D   G  D   G
Rezo,  rezo
 D   G  D   G
Rezo,  rezo
 D   G           D  G
Rezo   rezo por vos
 D   G  D   G  D
Rezo,  rezo
Otros videos de esta canción
    262.200 exhibiciones
    • Simplificar cifrado
      • ½ Tono
      • A
      • Bb
      • B
      • C
      • Db
      • D
      • Eb
      • E
      • F
      • F#
      • G
      • Ab
    • Agregar a la lista

    Afinación de cifrado

    Afinador online

      OK