Cifra Club

Aprenda

Te Recuerdo Invierno

Charly Garcia

Tablatura: Principal (guitarra)
tono: D
 E|--0--1--3--5--8--7-|-0--1--3--5--8--7-|-1--3--4--3--1--0--0--3--5--6--5-| 
 B|-------------------|------------------|---------------------------------| 
 G|-------------------|------------------|---------------------------------| 
 D|-------------------|------------------|---------------------------------| 
 A|-------------------|------------------|---------------------------------| 
 E|-------------------|------------------|---------------------------------| 

  Te recuerdo invierno, ahora que estoy solo, y me acuerdo del sol que no brillaba                 
  
 E|--0--1--3--5--8--7-| 
 B|-------------------| 
 G|-------------------| 
 D|-------------------| 
 A|-------------------| 
 E|-------------------| 

 De tu mano helada 

 E|--0--1--3--5--8--7-|-0--1--3--5--8--7-|-1--3--4--3--1--0--3--3--5--6--5-| 
 B|-------------------|------------------|---------------------------------| 
 G|-------------------|------------------|---------------------------------| 
 D|-------------------|------------------|---------------------------------| 
 A|-------------------|------------------|---------------------------------| 
 E|-------------------|------------------|---------------------------------| 
  
 Cuando el viento heria, tu cara y la mia, por el parque humedo de rocio 

 E|--0--1--3----------| 
 B|-----------0--1----| 
 G|-------------------| 
 D|-------------------| 
 A|-------------------| 
 E|-------------------| 
  
 Y vamos los dos 

 E|-0--1--3--5--0--8-|-5--3--5--3--2--1--0--3---3--1--0--3--5--6--5-| 
 B|------------------|----------------------------------------------| 
 G|------------------|----------------------------------------------| 
 D|------------------|----------------------------------------------| 
 A|------------------|----------------------------------------------| 
 E|------------------|----------------------------------------------| 
  
 Te esperare de pie    cuando el frio te traiga aqui otra vez como antes 

 E|--0--1--3--5--8--7-|-0--1--3--5--8--7-|-1--3--4--3--1--0--3--3--5--6--5-| 
 B|-------------------|------------------|---------------------------------| 
 G|-------------------|------------------|---------------------------------| 
 D|-------------------|------------------|---------------------------------| 
 A|-------------------|------------------|---------------------------------| 
 E|-------------------|------------------|---------------------------------| 
  
 Solamente puedo        esperar tu vuelta   por el parque humedo de rocio  

 E|--0--1--3----------| 
 B|-----------0--1----| 
 G|-------------------| x3 
 D|-------------------| 
 A|-------------------| 
 E|-------------------| 

  Te vere venir, Te vere venir 

  La cancion es sencillisima es casi que una repeticion del estribillo 
  El tema es original de Sui Generis
Colaboración y revision:
  • César Vianna
161 reproducciones
    • ½ Tono
    • A
    • Bb
    • B
    • C
    • Db
    • D
    • Eb
    • E
    • F
    • F#
    • G
    • Ab
  • Adicionar à lista

    0 comentarios

    Ver todos os comentários

    ¿Conseguiste tocar?

    0 Tocaram 0 Ainda não

    Grave um vídeo tocando Te Recuerdo Invierno e nos envie!

    00:00 / 00:00
    outros vídeos desta música
    repetir qualidade Automático
    Outros vídeos desta música
    00:00 / 00:00
    Automático
    OK