Cifra Club

No Volveré

Chavela Vargas

Cifrado: Principal (guitarra y guitarra eléctrica)
Selo Cifra Club: esta cifra foi revisada para atender aos critérios oficiais da nossa Equipe de Qualidade.
tono: F
E|-----13-----------------13-12--12/15v-|
B|---15----15----------15---------------|
G|--15--------15----15------------------|
D|-15------------15---------------------|
A|--------------------------------------|
E|--------------------------------------|

E|-13-----------------13-12--13-|
B|-----13----------13-----------|
G|--------14----14-------------| |                   2
D|-----------15-----------------|
A|------------------------------|
E|------------------------------|

E|-15-13-12-13-12-10-12-13-12-10-8-7-8-|----------13-12-11v--|
B|-------------------------------------|---10-13-------------|
G|-------------------------------------|-10------------------|
D|-------------------------------------|---------------------|
A|-------------------------------------|---------------------|
E|-------------------------------------|---------------------|

Se repite la parte 1 y 2,  para terminar se toca lo siguiente (4):

E|-15-13-12-13-12-10-12-13-12-10-8-------|
B|---------------------------------11-10-|
G|---------------------------------------|
D|---------------------------------------|
A|---------------------------------------|
E|---------------------------------------|

*Pongan atención a los tiempos en la canción para darle el mismo
 feeling.

*Esta introducción se repite de igual manera a mitad de la canción.

*A continuación les dejo los acordes, los bajeos son muy sencillos
   y los fills que lleva durante toda la canción no son complicados
   y básicamente son las mismas notas.


Ritmo de vals
                             F
Cuando lejos te encuentres de mí
                     C
Cuando quieras que yo este con-tigo
      A#                   F
No hallaras un recuerdo de mí
     C                   F
Ni tendrás mas amores con-migo
               C     F
Yo te juro que no volveré
             A#
Aun que me hagas pedazo la vida

F
Si una vez con locura te ame
           A#             F
Hoy de mi alma estarás despedida
 A#                                    F
No volveré te lo juro por dios que me miras
                         C         F
Te lo digo llorando de rabia no volveré
 A#                                    F
No parare hasta ver que mi llanto ha formado
                       A#
Un arroyo de olvido abnegado
                         F
Donde yo tu recuerdo ahogare


*Se repite el punteo del principio

                         A#    F
Fuimos nubes que el viento aparto
                               C
Fuimos piedras que siempre chocamos
           A#             F
Gotas de agua que el sol resecó
     C               F
Borracheras que no terminamos

En el tren de la ausencia me voy
     C             A#
Mi boleto no tiene regreso
                        F
Lo que tengas de mi te lo doy
     C                  F
Pero no te devuelvo tus besos
     C                  F
Pero no te devuelvo tus besos
     C                  F
Pero no te devuelvo tus besos
Otros videos de esta canción
    2.651 exhibiciones
      • ½ Tono
      • A
      • Bb
      • B
      • C
      • Db
      • D
      • Eb
      • E
      • F
      • F#
      • G
      • Ab
    • Agregar a la lista

    Afinación de cifrado

    Afinador online

      OK