Cifra Club

Mulher Amada

Chiclete Com Banana

Cifrado: Principal (guitarra y guitarra eléctrica)
tono: G
(Saul Barbosa/Gerônimo)

e|--------7-4/5-----------------7-4/5-----------------7-4/5---5-8-|-
B|--5-5-8--------8-7-5-----5-5-8------8-7-5-----5-5-8-------7-----|-
G|----------------------------------------------------------------|-
D|----------------------------------------------------------------|-
A|----------------------------------------------------------------|-
E|----------------------------------------------------------------|-

-|--7-8-7-5--------
-|----------8-7-5--
-|-----------------
-|-----------------
-|-----------------
-|-----------------

notação: / = slide


Em                   B
Subi a avenida cantando
                         Em 
Pensando encontrar meu amor
Em                          B
E o brilho em teus olhos sorrindo
               C
Me pegou de repente a paixão 
         B                   Em
De uma flor perfumada se abrindo

       D
Amada minha mulher
                       G
Formosa por ser companheira
        D
És o espelho da fé
                     G
Na luta de ser verdadeira
G|-A|-Bb   B 
Abraça  este teu homem
                     Em
E sempre fiel toda a vida
           C                 Am                 B
Pra tudo e para toda hora a nossa paixão vai rolar 
C B    C B
Ê a... Ê a

E
Amor, Amor
       F#m         B
Não me canso de falar
       F#m         B
Não me canso de dizer
        E            B  
Não me canso de te amar

E
Amor, Amor
       F#m         B
Não me canso de falar
       F#m         B
Não me canso de dizer
   E
Te amo
00:00 / 00:00
Otros videos de esta canción
Repetir
Otros videos de esta canción
Composición de Gerônimo / Saul Barbosa
Colaboración y revisión:
  • Savio Parente
100 exhibiciones
    • ½ Tono
    • A
    • Bb
    • B
    • C
    • Db
    • D
    • Eb
    • E
    • F
    • F#
    • G
    • Ab
  • Agregar a la lista
    00:00 / 00:00
    OK