Cifra Club

Rumba De Santa Clara

Chiclete Com Banana

Cifrado: Principal (guitarra y guitarra eléctrica)
Selo Cifra Club: esta cifra foi revisada para atender aos critérios oficiais da nossa Equipe de Qualidade.
tono: D
Tom.: Bm

E|-------2--------------------------------2--------------------|
B|-----3---5-3----------2-5-3-----------3---5-3--------2-------|
G|-2-4---------4-2----2------------2-4----------4-2--2---2-4---|
D|-------------------------------------------------------------|
A|-------------------------------------------------------------|
E|-------------------------------------------------------------|
  tirado por Santiago (SSA)


E|-------------------------------------------------------------|
B|--------7----------------------------7-----------------------|
G|------7---9-7-6-------6-9-7--------7---9-7-6-------6---------|
D|----9-----------7---7------------9-----------7---7---7-9-----|
A|--9----------------------------9-----------------------------|
E|-------------------------------------------------------------|

(letra revisada)

Bm          A
Clarinha  Uirê
            Bm
Clarinha  Uiré
            A
Clarinha  Uirê
            Bm           
Clarinha  Uiré

                          A
Cumachê Cumachê Cumachêrêrê Bambaré 
            Bm
Clarinha Uirê 
                          A
Cumachê Cumachê Cumachêrêrê Bambaré 
            Bm
Clarinha Uirê 

           A
Dança Muzenza
         Bm
Minha Musa
         A
Vamo Simbora
         Bm
Nesse Samba

                  A       
É munjéjé É munjéjé É
      Bm
munjéjé  (4x)

               A
Chiclete com Banana 
               Bm
Chiclete com Maria
                A
Chiclete com Bahia
                Bm
Chiclete com Baiana
                 A
Chiclete com Juliana
                Bm
Chiclete com Alegria
               A                  
Chiclete com Brown
               Bm
Chiclete com Durval
               A
Chiclete com Ivete 
                 Bm
Chiclete com Chiclete

É munjéjé é munjéjé...
Otros videos de esta canción
    35.769 exhibiciones
      • ½ Tono
      • A
      • Bb
      • B
      • C
      • Db
      • D
      • Eb
      • E
      • F
      • F#
      • G
      • Ab
    • Agregar a la lista

    Afinación de cifrado

    Afinador online

      OK