Cifra Club

Deus Me Proteja

Chico César

Cifrado: Principal (guitarra y guitarra eléctrica)
tono: D
[Intro] D  Bm2  F#m11
        A2  D6(9)  A#º  Bm7
        E/G#  D
        D  Bm2  F#m11
        A2  D6(9)  A#º  Bm7
        E/G#  D

Parte 1 de 3

         D    Bm2  F#m11  
E|-----------------------x------------------|
B|---------7----7----0---x-----------0------|
G|---------7----6----6---x---------0---0----|
D|---4-5-7----9------7---x-------0----------|
A|-7---------------9-----x-----4------------|
E|-----------------------x---7--------------|

Parte 2 de 3

   A2   D6(9)                A#º  Bm7
E|-----------x-------------------------x----|
B|---5----5--x-------------------2----3--x--|
G|---4----4--x---0-------------0----2--x----|
D|-7------4--x-4---4-2p0-------2----4--x----|
A|------5----x-----------4-2-1----2----x----|
E|-----------x-------------------------x----|
 
Parte 3 de 3

         E/G#     D
E|--------------------x---------------------|
B|---------5--------3-x---------------------|
G|---------4--------2-x---------------------|
D|---------2--------4-x---------------------|
A|-2p0--------0-4-5---x---------------------|
E|-----3-4------------x---------------------|
 
[Primeira Parte]

Parte 1 de 4

   D
E|-----x------------x-----------------------|
B|---3-x---3------3-x---3-------------------|
G|---2-x---2-2----2-x---2-2-----------------|
D|-----x-4----------x-4---------------------|
A|-5---x--------5---x-----------------------|
E|-----x------------x-----------------------|
 
Parte 2 de 4

   G     D/F#  Em7          Bm7
E|-----------------x------------x-----------|
B|----8----7-----8-x---8------7-x---7-------|
G|----7----7-----7-x---7-7----7-x---7-7-----|
D|-----------------x-9----------x-7---------|
A|-10----9-----7---x------------x-----------|
E|-----------------x--------7---x-----------|
 
Parte 3 de 4
   F#m7             G                
E|------x-----------------x-----------------|
B|---10-x----10--------12-x----12-----------|
G|---9--x----9--9------12-x----12-12--------|
D|------x-11--------------x-12--------------|
A|-9----x-----------10----x-----------------|
E|------x-----------------x-----------------|
 
Parte 4 de 4

   E/G#          A/C#   A7  D
E|------x-----------------------x-----------|
B|----9-x---9------10---------3-x---3-------|
G|----9-x---9-9----9-----6----2-x---2-2-----|
D|------x-9--------7-----5----4-x-4---------|
A|-11---x-------------------5---x-----------|
E|------x--------9-----5--------x-----------|
 
 D
Deus me proteja de mim
         G       D/F#  Em7
E da maldade de gente boa
       Bm7            F#m7
Da bondade da pessoa ruim
G                     E/G#
  Deus me governe e guarde
           A/C#  A7   D
Ilumine e zele   as__sim
 D
Deus me proteja de mim
         G       D/F#  Em7
E da maldade de gente boa
       Bm7             F#m7
Da bondade da pessoa ruim
G                     E/G#
  Deus me governe e guarde
           A/C#  A7  D
Ilumine e zele  as__sim

[Segunda Parte]

Parte 1 de 4
 
   Bm7         F#m            G
E|------x------------x------------x---------|
B|----3-x---3------2-x---2------3-x---3-----|
G|----2-x---2-2----2-x---2-2----4-x---4-4---|
D|----4-x-4--------4-x-4--------5-x-5-------|
A|--2---x------------x------------x---------|
E|------x--------2---x--------3---x---------|
 
Parte 2 de 4

   D            Em           Bm7
E|-----x------------x------------x----------|
B|---3-x---3------0-x---0------3-x---3------|
G|---2-x---2-2----0-x---0-0----2-x---2-2----|
D|-----x-4--------2-x-2--------4-x-4--------|
A|-5---x------------x--------2---x----------|
E|-----x--------0---x------------x----------|

Parte 3 de 4

   E/G#       A   A/C#
E|-----x------------------------------------|
B|---5-x---5----2---2-----------------------|
G|---4-x---4----2---2-----------------------|
D|---2-x-2------2---2-----------------------|
A|-----x------0---4-------------------------|
E|-4---x------------------------------------|

Parte 4 de 4

   E/G#     D
E|--------------x---------------------------|
B|---5--------3-x---------------------------|
G|---4--------2-x---------------------------|
D|---2--------4-x---------------------------|
A|------0-4-5---x---------------------------|
E|-4------------x---------------------------|

   Bm7                F#m7
Caminho se conhece andando
               G                 D
Então vez em quando é bom se perder
    Em              Bm7
Perdido fica perguntando
             E/G#
Vai só procurando
              A  A/C#
E acha sem saber

   Bm7                    F#m7
Perigo é se encontrar perdido
                G
Deixar sem ter sido
                D
Não olhar, não ver
     Em                   Bm7
Bom mesmo é ter sexto sentido
           E/G#                    D
Sair distraído, espalhar bem-querer

( D  Bm2  F#m11 )
( A2  D6(9)  A#º  Bm7 )
( E/G#  D )
( D  Bm2  F#m11 )
( A2  D6(9)  A#º  Bm7 )
( E/G#  D )

[Primeira Parte]

 D
Deus me proteja de mim
         G       D/F#  Em7
E da maldade de gente boa
       Bm7            F#m7
Da bondade da pessoa ruim
G                     E/G#
  Deus me governe e guarde
           A/C#  A7   D
Ilumine e zele   as__sim
 D
Deus me proteja de mim
         G       D/F#  Em7
E da maldade de gente boa
       Bm7             F#m7
Da bondade da pessoa ruim
G                     E/G#
  Deus me governe e guarde
           A/C#  A7  D
Ilumine e zele   as__sim

[Segunda Parte]

   Bm7                F#m7
Caminho se conhece andando
               G                 D
Então vez em quando é bom se perder
    Em              Bm7
Perdido fica perguntando
             E/G#
Vai só procurando
              A  A/C#
E acha sem saber

   Bm7                    F#m7
Perigo é se encontrar perdido
                G
Deixar sem ter sido
                D
Não olhar, não ver
     Em                   Bm7
Bom mesmo é ter sexto sentido
           E/G#                    D
Sair distraído, espalhar bem-querer

[Final] D  Bm2  F#m11
        A2  D6(9)  A#º  Bm7
        E/G#  D
        D  Bm2  F#m11
        A2  D6(9)  A#º  Bm7
        E/G#  D
00:00 / 00:00
Otros videos de esta canción
Repetir
Otros videos de esta canción
Composición de Chico César
6.491 exhibiciones
  • Simplificar cifrado
    • ½ Tono
    • A
    • Bb
    • B
    • C
    • Db
    • D
    • Eb
    • E
    • F
    • F#
    • G
    • Ab
  • Agregar a la lista
    00:00 / 00:00
    Capítulos
    • Tocando a Música
    • Acordes Introdução
    • Tocando Introdução
    • Ensinando Introdução
    • Acordes Primeira Parte
    • Tocando Primeira Parte
    • Ensinando Primeira Parte
    • Acordes Segunda Parte
    • Tocando Segunda Parte
    • Ensinando Segunda Parte
    • Encerramento
    OK