Cifra Club

Novo Começo

Chimarruts

Tab de bajo: Principal
Mil desculpas eu peço...
G|-------9--------|
D|--9/11---11-9---|
A|--------------7-|
E|----------------|

Por não saber dizer adeus direito...
G|------------------------------------|
D|------------------------------------|
A|--7-8-9-99--99--9-9---9-99--99--9-9-|
E|-----------99--9-----------99--9----|

Bem que tentamos, fizemos planos...
G|----------------------------------------------------------------|
D|----------------------------------------------------------------|
A|--7-7--77--7-7---7-7--77--7-7--7-8-9--9--99--9-9---9-9--99--9-9-|
E|-----77--7---------77--7---------------99--9----------99--9-----|

Talvez não fale de amor...
G|-----------------------------|
D|-----------------------------|
A|-------------------7---------|
E|--9999-7-7----55-5---5--5-7--|

G|-----------------------------|
D|-----------------------------| 2x
A|-------------------7---------|
E|--99-9-7-7----55-5---5--5-7--|

G|--------------------|
D|--------------------| 
A|--------------------|
E|--99-9-7-7----5--7--|

Veja agora ando só...
G|-----------------------------------|
D|-----------------------------------| 6x
A|--7-7--77--7-7--7-8--9-9--99--9-9--|
E|-----77--7--------------99--9------|

Talvez não fale de amor...
G|-----------------------------|
D|-----------------------------|
A|-------------------7---------|
E|--9999-7-7----55-5---5--5-7--|

G|-----------------------------|
D|-----------------------------| 2x
A|-------------------7---------|
E|--99-9-7-7----55-5---5--5-7--|

G|--------------------|
D|--------------------| 
A|--------------------|
E|--99-9-7-7----5--7--|

Veja agora ando só...
G|-----------------------------------|
D|-----------------------------------| 
A|--7-7--77--7-7--7-8--9-9--99--9-9--|
E|-----77--7--------------99--9------|
00:00 / 00:00
Otros videos de esta canción
Repetir
Otros videos de esta canción
Composición de Nê / Sander
Colaboración y revisión:
  • Ricardo Taques
  • Igor Pessoa
55 vistas

0 comentarios

Ver todos los comentarios

¿Lograste tocar?

2 Tocaron 0 Aún no

¡Graba un video tocando Novo Começo y envíanoslo!

00:00 / 00:00
OK