Cifra Club

Aprenda

40 e 20

Chitãozinho & Xororó

Tablatura: Principal (guitarra)
tono: E
C#m F# D#m G# C#m D# G#m
    
E|--4-6-7----------6-7-9-6-9-2-------------------------------------
G|----------2------------------------------------------------
D|------------------------------------------------------------
A|---------------------------------------------------------------
E|-------------------------------------------------------------

    
E|----------------4---11-9-6--------4-3-4--------------------------
G|---4-5-7-7-5------------------------------------------------
D|------------------------------------------------------------
A|---------------------------------------------------------------
E|-------------------------------------------------------------

Mentiras
           C#m        F#
São todas mentiras
              B               E
Coisas que dizem da gente
                  A               Bb
Que o nosso amor é proibido
                  D#              G#m
Por que temos quarenta e vinte
                       C#m         F#
Que eu sou o outono em sua vida
          B        G#m
E você é doce primavera
      E         A                Bb
Não sabem que guardo um verão
                  D#                 G#m
Que quando te olho te queima                                    
G#m C#m               F#
  Quarenta e vinte
    B                E
Quarenta e vinte
      C#m             D#
É o amor que importa não
          G#m           F#m
O que diz essa gente
G#m C#m              F#
  Quarenta e vinte
   B               E
Quarenta e vinte
           C#m
Se estamos juntos
           D#
Se somos felizes
 G#m                  G#m
Vamos em frente
                                                        
C#m F# D#m G# C#m D# G#m
    
E|--4-6-7----------6-7-9-6-9-2-------------------------------------
G|----------2------------------------------------------------
D|------------------------------------------------------------
A|---------------------------------------------------------------
E|-------------------------------------------------------------

    
E|----------------4---11-9-6--------4-3-4--------------------------
G|---4-5-7-7-5------------------------------------------------
D|------------------------------------------------------------
A|---------------------------------------------------------------
E|---------------------------------------------------
                  
                     C#m            F#
Que importa que eles não entendam
              B               E
Sabemos que falam da gente
              A               Bb
Que existe muita diferença
                    D#               G#m
Por que temos o quarenta e vinte
                  C#m             F#
Que eu tenho muitas vivências
              B      G#m
E você tem tanta inocência
       E         A              Bb
Não sabem que o nosso segredo
                    D#               G#m
É a sua juventude e a minha experiência
G#m C#m               F#
  Quarenta e vinte
    B                E
Quarenta e vinte
      C#m             D#
É o amor que importa não
          G#m           F#m
O que diz essa gente
G#m C#m              F#
  Quarenta e vinte
   B               E
Quarenta e vinte
           C#m
Se estamos juntos
           D#
Se somos felizes
                         
Vamos em frente

C#m  D# G#m
    

E|---4-6-7--------------7-6----------------------
G|---------------------8------9-------------------------------
D|------------------------------------------------------------
A|---------------------------------------------------------------
E|-------------------------------------------------------------
Composição de Chitãozinho / Roberto Livi / Xororó
Colaboración y revision:
  • diogo gomes
197 reproducciones
    • ½ Tono
    • A
    • Bb
    • B
    • C
    • Db
    • D
    • Eb
    • E
    • F
    • F#
    • G
    • Ab
  • Adicionar à lista

    0 comentarios

    Ver todos os comentários
    00:00 / 00:00
    outros vídeos desta música
    repetir qualidade Automático
    Outros vídeos desta música
    00:00 / 00:00
    Automático
    OK