Cifra Club

Aprenda

Gosto

Chitãozinho & Xororó

Tablatura: Principal (guitarra)
tono: B
Intro:
     B                      E
E|-------------|-------------4----------|
B|--4-5-5h7----|-444-5-5h7-7---5-4-4h5--|
G|----------4--|------------------------|
D|-------------|------------------------|
A|-------------|------------------------|
E|-------------|------------------------|

     B            F#            B
E|-------------|---------------------------|
B|-------------|-----------4---5-4-4--7----|
G|--1---1-1/4--|-3---3-3/6---6----------4--|
D|----4--------|---6-----------------------|
A|-------------|---------------------------|
E|-------------|---------------------------|

444 = tercina na nota d# [casa 4, corda si]

1ª parte:
 B
Gosto tanto de você
                  F#
Como eu gosto de mim
                      G#m
Tudo o que eu mais desejo
       ( G#m/F# )   E  ( B/D# )
É te deixar      feliz
     C#m               ( C#m/B )
Eu adoro me encontrar no teu sorriso

F#/A#
      Ver tua alegria
   C#m                 ( C#m/B )
Ouvir você dizendo o que eu preciso
F#
   Já é minha mania

2ª parte:
 B
Gosto das tuas virtudes
              F#
E dos teus defeitos
                                   G#m
Conheço melhor do que ninguém teu jeito
       ( G#m/F# )  E  ( B/D# )
E até o teu mau-humor
        C#m              ( C#m/B )
E quem fez você entrar na minha vida
 F#/A#
Parece que sabia
       C#m             ( C#m/B )
Que você seria a luz da minha noite
F#
E o sol do meu dia

Refrão:
B                             C#m
  Eu quero que seja sempre assim
               F#
Você perto de mim
   F#/E            B    E  F#
É sempre um sonho novo
B                           C#m
  Eu quero deixar transparecer
                    E
Que é só olhar pra mim
     F#    B
Pra ver você!

Passagem com solo (em G): G  D  A  E  G  D  E  F#

(Repete 2ª parte)

(Repete Refrão)

Para terminar:
                    E
É só olhar pra mim
     F#    B
Pra ver você...
Composição de Jose Augusto
Colaboración y revision:
  • Elton Cruz
  • Márcio Grangeiro
31 reproducciones
    • ½ Tono
    • A
    • Bb
    • B
    • C
    • Db
    • D
    • Eb
    • E
    • F
    • F#
    • G
    • Ab
  • Adicionar à lista

    0 comentarios

    Ver todos os comentários
    00:00 / 00:00
    outros vídeos desta música
    repetir qualidade Automático
    Outros vídeos desta música
    00:00 / 00:00
    Automático
    OK