Cifra Club

Aprenda

Página de Amigos

Chitãozinho & Xororó

Tablatura: Principal (guitarra)
tono: Bbm (con acordes en la forma de Am) Capotraste na 1ª casa
[Solo] C  G  F  C  G

E|-------------------------------------------------------------|
B|-1/8-8-6-5-5-3-3--3/5-3/5--3--1-1------1-3-1-3/5-6p5-3-------|
G|----------------------------------0-2------------------------|
D|-------------------------------------------------------------|
A|-------------------------------------------------------------|
E|-------------------------------------------------------------|

[Primeira Parte]

C
Ela ligou terminando
 G
Tudo entre eu e ela
   F
E disse que encontrou
          C  G
Outra pessoa
C
Ela jogou os meus sonhos
 G
Todos pela janela
   F
E me pediu pra entender
              C  G
Encarar numa boa

[Pré-Refrão]

 C
Como se o meu coração
               G
Fosse feito de aço

Pediu pra esquecer os beijos
       F
E abraços
E pra machucar
                 C   G
Ainda brincou comigo
 C
Disse em poucas palavras
              G
Por favor, entenda

O seu nome vai ficar na
        F
Minha agenda
    G          C    G
Na página de amigos

[Refrão]

 C
Como é que eu posso ser
             G
Amigo de alguém que eu tanto amei
    F
Se ainda existe aqui comigo
      C             G
Tudo dela e eu não sei
     C
Não sei o que vou eu fazer
          C7                F  Fm
Pra continuar a minha vida assim
       C
Se o amor que morreu dentro
 G                  C
Dela ainda vive em mim

[Solo] C  G  F  C  G

E|-------------------------------------------------------------|
B|-1/8-8-6-5-5-3-3--3/5-3/5--3--1-1------1-3-1-3/5-6p5-3-------|
G|----------------------------------0-2------------------------|
D|-------------------------------------------------------------|
A|-------------------------------------------------------------|
E|-------------------------------------------------------------|

[Primeira Parte]

C
Ela jogou os meus sonhos
 G
Todos pela janela
   F
E me pediu pra entender
              C  G
Encarar numa boa

[Pré-Refrão]

 C
Como se o meu coração
               G
Fosse feito de aço

Pediu pra esquecer os beijos
       F
E abraços
E pra machucar
                 C   G
Ainda brincou comigo
 C
Disse em poucas palavras
              G
Por favor, entenda

O seu nome vai ficar na
        F
Minha agenda
    G          C    G
Na página de amigos

[Refrão]

 C
Como é que eu posso ser
             G
Amigo de alguém que eu tanto amei
    F
Se ainda existe aqui comigo
      C             G
Tudo dela e eu não sei
     C
Não sei o que vou eu fazer
          C7                F  Fm
Pra continuar a minha vida assim
       C
Se o amor que morreu dentro
 G                  C
Dela ainda vive em mim

       C
Se o amor que morreu dentro
 G                  C
Dela ainda vive em mim
Composição de Alexandre / Rick
16.273 reproducciones
    • ½ Tono
    • Am
    • Bbm
    • Bm
    • Cm
    • C#m
    • Dm
    • Ebm
    • Em
    • Fm
    • F#m
    • Gm
    • G#m
  • Adicionar à lista

    0 comentarios

    Ver todos os comentários
    00:00 / 00:00
    outros vídeos desta música
    repetir qualidade Automático
    Outros vídeos desta música
    00:00 / 00:00
    Automático
    OK