Cifra Club

Mr. Sandman

Chordettes

Cifrado: Principal (guitarra y guitarra eléctrica)
tono: F
[Intro] A  Bm  E  A  Bm  E

[Tab - Intro]

E|------------------|
B|------------------|
G|------------------|
D|--------6-4-------|
A|----4-7-----7-4---|
E|--5-------------5-|

E|------------------|
B|------------------|
G|------------------|
D|---------7-6------|
A|-----4-5----------|
E|--7---------------|

[Primeira Parte]

[Tab - Primeira Parte]

E|---------------------------------------|
B|-2---4-------6-------2-------4-9-5-10-9|
G|-1---5-------5-------3-------2-7-6-10-7|
D|-2---4-------6-------2-------4-9-7-10-9|
A|-0-------3-4-4-4-3-2-------1-2-7---8--7|
E|-----4-6-------------2-2-4-------5-----|

   A7M      Ab7
Mr. Sandman, bring me a dream
C#7                                 F#7
Make him the cutest that I've ever seen
B7                              E7
Give him two lips like roses and clover
A                                F              E7
Then tell him that his lonesome nights are over
A7M       Ab7
Sandman, I'm so alone
C#7                            F#7
Don't have nobody to call my own
Bm                                    Dm
Please turn on your magic beam
      A              B7          E7 A
Mr. Sandman, bring me a dream

( D  Em  A7  D  Em  A7 )

E|---------------------|
B|---------------------|
G|---------------------|
D|---------11-9--------|
A|----9-12------12-9---|
E|-10----------------10|

E|--------------|
B|--------------|
G|--------------|
D|--------12-11-|
A|----9-10------|
E|-12-----------|

[Segunda Parte]

[Tab - Segunda Parte]

E|------------------------|
B|-5-6-------2-4-9-5-7-6-5|
G|-6-4-------3-2-7-6-7-7-6|
D|-7-6-----3-2-4-9-7-7-8-7|
A|-5-4-4-6-----2-7---5----|
E|-----------2-----5---6-5|

( D  Em  A7  D  Em  A7 )

      D7M      C#7
Mr. Sandman, bring me a dream
F#7                                 B7
Make him the cutest that I've ever seen
E7                                A7
Give him the word that I'm not a rover
D                                               Bb            A7
Then tell him that his lonesome nights are over
D7M      C#7
Sandman, I'm so alone
F#7                            B7
Don't have nobody to call my own
Em                                    Gm
Please turn on your magic beam
      D              E7         A7 D
Mr. Sandman, bring me a dream

( Bm  E7  Bm  E7  A  E7 )

[Terceira Parte]

[Tab - Terceira Parte]

E|---------------------------------------|
B|-2---4-------6-------2-------4-9-5-10-9|
G|-1---5-------5-------3-------2-7-6-10-7|
D|-2---4-------6-------2-------4-9-7-10-9|
A|-0-------3-4-4-4-3-2-------1-2-7---8--7|
E|-----4-6-------------2-2-4-------5-----|

      A7M     Ab7
Mr. Sandman bring us a dream
                 C#7                       F#7
Give him a pair of eyes with a come-hither gleam
                 B7                      E7
Give him a lonely heart like Pagliacci
A                                     F      E7
And lots of wavy hair like Liberace
A7M            Ab7
Mr. Sandman, someone to hold
C#7                             F#7
Would be so peachy before we're too old
     Bm                                    Dm
So please turn on your magic beam
      A              B7           A                     B7
Mr. Sandman, bring us, please, please, please
      A              B7         E7 A
Mr. Sandman, bring us a dream
00:00 / 00:00
Otros videos de esta canción
Repetir
Otros videos de esta canción
Composición de Pat Ballard
Colaboración y revisión:
  • André Santi
  • Amanda Borges
4.255 vistas
    • ½ Tono
    • A
    • Bb
    • B
    • C
    • Db
    • D
    • Eb
    • E
    • F
    • F#
    • G
    • Ab
  • Agregar a la lista

    0 comentarios

    Ver todos los comentarios

    ¿Lograste tocar?

    16 Tocaron 3 Aún no

    ¡Graba un video tocando Mr. Sandman y envíanoslo!

    00:00 / 00:00
    OK