Cifra Club

Nothing Compares 2 U

Chris Cornell

Cifrado: Principal (guitarra y guitarra eléctrica)
Selo Cifra Club: esta cifra foi revisada para atender aos critérios oficiais da nossa Equipe de Qualidade.
tono: C
[Intro] C  G/B  Am  C  G

[Tab - Solo]

E|--------------------------------------------------------------------------------|
B|--------------------------------------------------------------------------------|
G|---------0------0h2--0------------------5h7~--5-5~-----9/10--9--7--5------------|
D|---2--3-----0~--------------------5--7--------------------------------5h7p5-----|
A|------------------------3~----/7--------------------------------------------7---|
E|--------------------------------------------------------------------------------|

E|-------------------------------------------|
B|-------------------------------------------|
G|----------------------------0--------------|
D|-------------------------3-----0~----------|
A|---7/5--3--5/7--5-----3---------------3~---|
E|-------------------------------------------|

C                         G/B
It's been seven hours and 15 days
Am                        C     G
Since you took your love away
C                         G/B
I go out all night and sleep all day
Am                        C     G
Since you took your love away
C                                 G/B
Since you been gone, I can do whatever I want
Am                          C  G
I can see whomever I choose

C                                G/B
I can eat my dinner in a fancy restaurant
Am
But nothing
                   E
Nothing can take away these blues

         Bb        F
'Cause nothing compares
Bb        F          G/B
Nothing compares to you

C                      G/B
It's been so lonely without you here
Am                           C G
Like a bird without a song
C                              G/B
Nothing can stop these lonely tears from falling
       Am                F
Tell me, where did I go wrong?
C                                 G/B
I could put my arms around every girl I choose
Am                          C  G
But it just reminds me of you

C                                 G/B
I went to the doctor, guess what he told me
          Am                                         E
He said, "Boy you better try to have fun, no matter what you do"
But he's a fool

         Bb        F
'Cause nothing compares
Am           G/B
Nothing compares... to you

[Solo] C  G/B  Am  C  G
       C  G/B  Am  E
       Bb  F  Am  G  E  G

[Tab - Solo]

E|--------------------------------------------------------8--10--10b-r-p8-------------------|
B|-------------------------------------------------------------------------10---------------|
G|---------5--7--7/9----9-----7--5--5/7---------------------------------------/9--7--5------|
D|---/7-------------------------------------/7--5---------------------------------------7---|
A|------------------------------------------------------------------------------------------|
E|------------------------------------------------------------------------------------------|

E|-------------------------------------------------------------------------8-8-8--5-5------|
B|---5---------------------------------------------------------------------------------8---|
G|-----7-5-------------------------5--7/9--10--9--7--5--/9--7--5-----5---------------------|
D|---------7-5---------------5--7---------------------------------7------------------------|
A|-------------7-5-3-----/7----------------------------------------------------------------|
E|-----------------------------------------------------------------------------------------|

E|----------------------------------------------------------------------------------------------------------|
B|---5------------------------------------------------------------------------------------------5-----------|
G|-----7-5----------------------------------5--7/9---9--9-----9--9--7--5--/9--7--5------------4---4---------|
D|---------7-5------------------------5--7------------------------------------------6-------6-------6-------|
A|-------------7-5---5/7------5--5/7------------------------------------------------------7-----------7-7---|
E|----------------------------------------------------------------------------------------------------------|

E|-----------------------------------------------------------------------------------------------|
B|-------------1p0-------1--------------1----------------------------------------------------0---|
G|-----------3-----3-------3--------------2------------------0-----2-2-0------------------0------|
D|---------3---------3-------3--------2----------------------2-----------2-0---------------------|
A|---1---1-------------1------------0------------------------2---------------2-0-----------------|
E|------------------------------------------3------3-2-0---0-0-------------------3---------------|

C
All the flowers that you planted mama
G/B
In your back yard
Am                          C  G
All died when you went away
C                              G/B
I know living with me is sometimes hard
Am                                  E
But I'm willing to give it another try

        Bb          F
'Cause nothing compares
Am          G/B
Nothing compares to you
Bb          F
Nothing compares
Am        G/B                   E   G
Nothing compares to you... ... to you
Otros videos de esta canción
    97.649 exhibiciones
      • ½ Tono
      • A
      • Bb
      • B
      • C
      • Db
      • D
      • Eb
      • E
      • F
      • F#
      • G
      • Ab
    • Agregar a la lista

    Afinación de cifrado

    Afinador online

      OK