Cifra Club

Sunday Sound

Chris Rolinson

Cifrado: Principal (guitarra y guitarra eléctrica)
Selo Cifra Club: esta cifra foi revisada para atender aos critérios oficiais da nossa Equipe de Qualidade.
tono: C
E|----------------------------------|
B|-1-1------------------------------|
G|-0-0--0---------------------------|
D|-2-2--0---------------------------|
A|-3-3--2---------------------------|
E|-3-3--3---------------------------|


[Verse 1]

E|----------------------------------|
B|-3--3-3-3------------------3------|
G|-0--0-0-0------------------0------|
D|-0--0-0-0------------------0------|
A|-x--x-2-x-----2h3==-3-2-0--x------|
E|-3--3-3-3------------------3------|
   G              C

G                       C
Stuck up in a lush life
G                       C
The phone lines are down
G                    C
Out on the salt flats
G                            C
They take their money to town

           F
Just like water on the ground
                     G
We will find our way


G                   C
Hallucination nation
G                 C
We got our vaccine
G                   C
Dancing for quarters
G                               C
'Ain't as underground as it seems
          F
Just like water on the ground
                  G
We will find our way


[Chorus 1]
                   C          G
Well I'd like to dance with you
        C         G
As the band plays on
             C         G
I'd like to talk with you
       F
'Till dawn
              C       G
We'll make a Sunday sound
 C         G
Loud and clear
              C       G
We'll make a Sunday sound
        F
That love's here
          G
Love's here


[Verse 2]

E|----------------------------------|
B|-3--3-3-3------------------3------|
G|-0--0-0-0------------------0------|
D|-0--0-0-0------------------0------|
A|-x--x-2-x-----2h3==-3-2-0--x------|
E|-3--3-3-3------------------3------|
   G              C

G          C   G              C
Decompression, coming up for air
G                C
A minor complication
G                               C
To what it is you caught down there
               F
And just like water on the ground
                      G
Say we will find our way


[Chorus 2]
                   C          G
Well I'd like to dance with you
        C         G
As the band plays on
             C         G
I'd like to talk with you
       F
'Till dawn
              C       G
We'll make a Sunday sound
 C         G
Loud and clear
              C       G
We'll make a Sunday sound
        F
That love's here
          G
Love's here


[Bridge]
Am
Bm                                     C     G
We'll it's hard enough just staying friendly
Bm                              F    C
Just to remain the apple of your eye
Bm                      C    G
Well these days I stay busy
Em                                        Am       F     C
'Cause making something outta nothing just ain't passing time


[Verse 3]

E|----------------------------------|
B|-3--3-3-3------------------3------|
G|-0--0-0-0------------------0------|
D|-0--0-0-0------------------0------|
A|-x--x-2-x-----2h3==-3-2-0--x------|
E|-3--3-3-3------------------3------|
   G              C

G                   C
New Mexico love song
G                           C
Warm your feathers in the sun
G                      C
Your California traffic
G                               C
Well it just it just ain't no fun
           F
Just like water on the ground
                  G
We will find our way


[Chorus 3]
                   C          G
Well I'd like to dance with you
        C         G
As the band plays on
             C         G
I'd like to talk with you
       F
'Till dawn
              C       G
We'll make a Sunday sound
 C         G
Loud and clear
              C       G
We'll make a Sunday sound
        F
That love's here
          G
Love's here


[End]

E|----------------------------------|
B|-3--3-3-3------------------3------|
G|-0--0-0-0------------------0------|
D|-0--0-0-0------------------0------|
A|-x--x-2-x-----2h3==-3-2-0--x------|
E|-3--3-3-3------------------3------|
   G              C



************************************

| x  Dead note
| h  Hammer-on
| == sustain
Otros videos de esta canción
    5 exhibiciones
      • ½ Tono
      • A
      • Bb
      • B
      • C
      • Db
      • D
      • Eb
      • E
      • F
      • F#
      • G
      • Ab
    • Agregar a la lista

    Afinação da cifra

    Afinador online

      Ops (: Contenido disponible solo en portugués.
      OK