Cifra Club

Nova York

Chrystian & Ralf

Cifrado: Principal (guitarra y guitarra eléctrica)
tono: G
[Solo] G  Dm  F  C

E|-8-8-8-8-8-8-8-7-5--------------------------------|
B|-------------------8-6-5---------5-6------5-6-----|
G|-------------------------7----7------7-7------7---|
D|--------------------------------------------------|
A|--------------------------------------------------|
E|--------------------------------------------------|

E|-8-8-8-8-8-8-8-7-5--------------------------------|
B|-------------------8-6-5-------5-6------5-6-5-----|
G|-------------------------7---7-----7-7--------7-5-|
D|--------------------------------------------------|
A|--------------------------------------------------|
E|--------------------------------------------------|

Dm             F          C
  Essa é a história de um novo herói
Dm             F          C
  Cabelos compridos a rolar no vento
Dm           F          C
  Pela estrada no seu caminhão
Dm             F               C         C7
  Cravado no peito a sombra de um dragão
F                        C
  Tinha um sonho ir pra Nova York
Levar a namorada
F                      C              C7
  Fazer seu caminhão voar nas nuvens
F                    C
  Mas enquanto isso na estrada
       Dm    C/E   F
Saudade vai, vai, vai
       Dm    C/E   F         C
Saudade vem, vem, vem te buscar

[Solo] G  Dm  F  C

E|-8-8-8-8-8-8-8-7-5--------------------------------|
B|-------------------8-6-5---------5-6------5-6-----|
G|-------------------------7----7------7-7------7---|
D|--------------------------------------------------|
A|--------------------------------------------------|
E|--------------------------------------------------|

E|-8-8-8-8-8-8-8-7-5--------------------------------|
B|-------------------8-6-5-------5-6------5-6-5-----|
G|-------------------------7---7-----7-7--------7-5-|
D|--------------------------------------------------|
A|--------------------------------------------------|
E|--------------------------------------------------|

Dm             F          C
  Essa é a história de um novo herói
Dm             F          C
  Cabelos compridos a rolar no vento
Dm           F          C
  Pela estrada no seu caminhão
Dm             F               C         C7
  Cravado no peito a sombra de um dragão
F                        C
  Tinha um sonho ir pra Nova York
Levar a namorada
F                      C              C7
  Fazer seu caminhão voar nas nuvens
F                    C
  Mas enquanto isso na estrada
       Dm    C/E   F
Saudade vai, vai, vai
       Dm    C/E   F         C
Saudade vem, vem, vem te buscar

Dm    C/E   F
Saudade vai, vai, vai
       Dm    C/E   F         C
Saudade vem, vem, vem te buscar

[Solo] G  Dm  F  C

E|-8-8-8-8-8-8-8-7-5--------------------------------|
B|-------------------8-6-5---------5-6------5-6-----|
G|-------------------------7----7------7-7------7---|
D|--------------------------------------------------|
A|--------------------------------------------------|
E|--------------------------------------------------|

E|-8-8-8-8-8-8-8-7-5--------------------------------|
B|-------------------8-6-5-------5-6------5-6-5-----|
G|-------------------------7---7-----7-7--------7-5-|
D|--------------------------------------------------|
A|--------------------------------------------------|
E|--------------------------------------------------|
Composición de Chrystian / Ralf
Colaboración y revisión:
6.508 vistas
    • ½ Tono
    • A
    • Bb
    • B
    • C
    • Db
    • D
    • Eb
    • E
    • F
    • F#
    • G
    • Ab
  • Agregar a la lista

    0 comentarios

    Ver todos los comentarios
    00:00 / 00:00
    Outros vídeos desta música
    Repetir Calidad Automático
    Outros vídeos desta música
    00:00 / 00:00
    Automático
    OK