Cifra Club

Poeira no vento

Chrystian & Ralf

Cifrado: Principal (guitarra y guitarra eléctrica)
tono: C
Intro: C C7+ C9 C Am9 Am4 Am Am9 C9 C C7+ C9 Am Am9 Am4 Am

    C            C7+        C9          C
|-----------------------------------------------|
|-1-------1---0-------0---3------3---1------1---|
|-----0-----------0-----------0----------0------|
|---2-----------2-----------2----------2--------|
|-3---------3-3---------3-3--------3-3--------3-|
|-----------------------------------------------|

    Am9           Am4         Am       Am9
|-----------------------------------------------|
|-0-------0---3-------3---1------1---0------0---|
|-----2-----------2-----------2----------2------|
|---2-----------2-----------2----------2--------|
|-0---------0-0---------0-0--------0-0----- --0-|
|-----------------------------------------------|

    C9           C          C7+         C9
|-----------------------------------------------|
|-3-------3---1-------1---0------0---3------3---|
|-----0-----------0-----------0----------0------|
|---2-----------2-----------2----------2--------|
|-3---------3-3---------3-3--------3-3--------3-|
|-----------------------------------------------|

    Am           Am9         Am4      Am 
|-----------------------------------------------|
|-1-------1---0-------0---3------3---1------1---|
|-----2-----------2-----------2----------2------|
|---2-----------2-----------2----------2--------|
|-0---------0-0---------0-0--------0-0----- --0-|
|-----------------------------------------------|

Am G/B      C   G/B   Am
So...li...dão   de...mais
G           Dm
É poeira que o vento
Am
Não desfaz
Am  G/B       C    G/B   Am
E      vi....ver   as....sim
G            Dm          
É com um pesadelo
         Am
Que não chega ao fim
D/F#    G        Am   Am/G
        Tudo pra mim
D/F#
Esse amor
    G         Am
Foi tudo pra mim
G/B C  G/B       Am
     Até  o      sol
    G            Dm         
Não tem o mesmo brilho  
     Am
Sem você aqui
Am    G/B      C    G/B    Am
E       o     céu  a ..... zul
   G            Dm   
Também perdeu a cor
        Am          D/F#
Ao ver você partir, ooo.....
 G        Am    Am/G
Tudo pra mim
D/F#
Esse amor
    G         Am    G6/A
Foi tudo pra mim
F7+/5-/A
OooO....
Solo:(Am G6/A F7+/5-/A
Solo sobre a introdução

Am    G/B   C   G/B Am
E     por  onde eu  for
 G           Dm
Vou levar comigo
          Am
As marcas desse amor
Am G/B     C   G/B    Am
Eu   a....té    ten..tei
  G         Dm
Achar uma saída
        Am       D/F#
Mas não encontrei
G
Ahh!
       Am Am/G
Esse amor
D/F#            G
Esse amor foi tudo
      Am    Am/G
Pra mim
D/F#  G
      Ahh!
       Am Am/G
Esse amor
 D/F#         G
Esse amor foi tudo 
    Am   (Am9 Am4 Am)
Pra mim
Composición de Kerry Livgren / Mauricio Gasperini / Mauro Gaperini / Sergio Pinheiro
Colaboración y revisión:
  • marcio santos
872 vistas
    • ½ Tono
    • A
    • Bb
    • B
    • C
    • Db
    • D
    • Eb
    • E
    • F
    • F#
    • G
    • Ab
  • Agregar a la lista

    0 comentarios

    Ver todos los comentarios
    00:00 / 00:00
    Outros vídeos desta música
    Repetir Calidad Automático
    Outros vídeos desta música
    00:00 / 00:00
    Automático
    OK