Cifra Club

A Considerable New Message

Christiansen

Cifrado: Principal (guitarra y guitarra eléctrica)
tono: E
Tabbed by: Vincent
Email: *

Tuning: normal

Great song, just simple tab, not 100% accurate
intro/verse
e|---------------------------------------------------------------------------|
B|------------4---4h5------------------4---4h5-----------------4---4h5-------|
G|----------4---4-----x4-------------6---6------x4-----------4---4-----x4----|
D|--6666(2)----------------7777(2)----------------6666(2)--------------------|
A|--6666(2)----------------7777(2)----------------6666(2)--------------------|
E|--4444(0)----------------5555(0)----------------4444(0)--------------------|

e|--------------------------------------------------------------|
B|--------------------------------------------------------------|
G|--9-----------------------------------------------------------|
D|--x--------13------------------------------x2-----------------|
A|--7--------11---11--/7--11--/7--------------------------------|
E|--5--------0--------------------------------------------------|

Short Break
e|-------------------------------------------------------------|
B|-------------------------------------------------------------|
G|-------------------------------------------------------------|
D|-------6666(2)-----------------------------------------------|
A|-------6666(2)-----------------------------------------------|
E|-------4444(0)-----------------------------------------------|

Verse 2
e|---------------------------------------------------------------------------|
B|------------4---4h5------------------4---4h5-----------------4---4h5-------|
G|----------4---4-----x4-------------6---6------x2!----------4---4-----x2!---|
D|--6666(2)----------------7777(2)----------------6666(2)--------------------|
A|--6666(2)----------------7777(2)----------------6666(2)--------------------|
E|--4444(0)----------------5555(0)----------------4444(0)--------------------|

Repeat Pre-chorus

Chorus
e|--4---5---2---4---------------------------------------|
B|--5---5---2---4---------------------------------------|
G|--6---6---2---4---------------------------------------|
D|--6---7---4---6---------------------------------------|
A|--4---7---4---6---------------------------------------|
E|------5---2---4---------------------------------------|

Bridge part 1
e|--------------------------------------------------------------|
B|--------------------------------------------------------------|
G|----13--------9999p86h8----13---------------------------------|
D|----x-----------------------x---------------------------------|
A|----11----------------------11--------------------------------|
E|--------------------------------------------------------------|
The Bass does the work

Bridge part 2
e|------------------------------------------------------------------------|
B|------------------------------------------------------------------------|
G|------9-10---10-9----5-4----4-3-----------------------------------------|
D|------x-x----x-x-----x-x----x-x----------x4-----------------------------|
A|------7-8----8-7-----3-2----2-1-----------------------------------------|
E|----7------8-------3------2---------------------------------------------|

Then play the chorus and end with
e|--------------------------------------------------------------|
B|--------------------------------------------------------------|
G|--------------------------------------------------------------|
D|-------6666(2)-----6666(2)------------------------------------|
A|-------6666(2)-----6666(2)------------------------------------|
E|-------4444(0)-----4444(0)------------------------------------|

Greetings and have fun

http://*
00:00 / 00:00
Otros videos de esta canción
Repetir
Otros videos de esta canción
Composición de Christiansen
49 vistas
    • ½ Tono
    • A
    • Bb
    • B
    • C
    • Db
    • D
    • Eb
    • E
    • F
    • F#
    • G
    • Ab
  • Agregar a la lista

    0 comentarios

    Ver todos los comentarios

    ¿Lograste tocar?

    0 Tocaron 0 Aún no

    ¡Graba un video tocando A Considerable New Message y envíanoslo!

    00:00 / 00:00
    OK