Cifra Club

Into The Black

Chromatics

Cifrado: Principal (guitarra y guitarra eléctrica)
tono: C
Intro/Riff Principal
(c/ distorção)
                                            F         F
E|-----|--------------------------|--1--1--1--|--1--1--1--|
B|-----|--------------------------|--1--1--1--|--1--1--1--|
G|-----|--------------------------|--2--2--2--|--2--2--2--|
D|-----|-----------0--------------|--3--3--3--|--3--3--3--|
A|--0--|--0--2--3-----2--0-----0--|--0--0--0--|--0--0--0--|
E|-----|--------------------3-----|-----------|-----------|

                                            F         F
E|-----|--------------------------|--1--1--1--|--1--1--1--|
B|-----|--------------------------|--1--1--1--|--1--1--1--|
G|-----|--------------------------|--2--2--2--|--2--2--2--|
D|-----|----------0--0-2--0--0----|--3--3--3--|--3--3--3--|
A|--0--|-0--2--3------------3--0--|--0--0--0--|--0--0--0--|
E|-----|--------------------------|-----------|-----------|
                                            
                                            F         F
E|-----|--------------------------|--1--1--1--|--1--1--1--|
B|-----|--------------------------|--1--1--1--|--1--1--1--|
G|-----|--------------------------|--2--2--2--|--2--2--2--|
D|-----|-----------0--------------|--3--3--3--|--3--3--3--|
A|--0--|--0--2--3-----2--0-----0--|--0--0--0--|--0--0--0--|
E|-----|--------------------3-----|-----------|-----------|
                                            F         F
E|-----|--------------------------|--1--1--1--|--1--1--1--|
B|-----|--------------------------|--1--1--1--|--1--1--1--|
G|-----|--------------------------|--2--2--2--|--2--2--2--|
D|-----|----------0--0-2--0--0----|--3--3--3--|--3--3--3--|
A|--0--|-0--2--3------------3--0--|--0--0--0--|--0--0--0--|
E|-----|--------------------------|-----------|-----------|



                  
Am   G        F
My, My, Hey, Hey. (F-F-F-F-F-F) (sempre 6 vezes)
Am     G               F
Rock N Roll Is Here to Stay. (F-F-F-F-F-F)
C                   G    Am           F
It's better to burn out than to fade away 
Am   G        F
My, My, Hey, Hey. (F-F-F-F-F-F)

(Main Riff)

Am         G                  F
Out Of The Blue, And Into The Black. (F-F-F-F-F-F)
Am          G                       F
They Give For This, But You Pay For That. (F-F-F-F-F-F)
C               G           Am      F
Once Your Gone, You Can't Never Come Back, 
Am                   G                 F
When Your Out of The Blue And Into The Black. (F-F-F-F-F-F)

(Main Riff)

Am           G                    F
The King Is Gone, But He's Not Forgotten. (F-F-F-F-F-F)
Am           G                   F
This Is The Story Of The Johnny Rotten. (F-F-F-F-F-F)
C                  G      Am            F
It's Better To Burn Out, Than It Is to Rust.
Am           G                    F
The King Is Gone, But He's Not Forgotten. (F-F-F-F-F-F)

(Main Riff)

Am   G        F
Hey, Hey, My, My. (F-F-F-F-F-F)
Am     G              F
Rock N Roll Can Never Die. (F-F-F-F-F-F)
C                   G          Am            F
There's More To The Picture, Than Meets The Eye. 
Am   G        F
Hey, Hey, My, My. (F-F-F-F-F-F)

(Finaliza com o riff principal)
Composición de Neil Young
Colaboración y revisión:
  • Laiany Leal
  • Josuá Nobre
433 vistas
    • ½ Tono
    • A
    • Bb
    • B
    • C
    • Db
    • D
    • Eb
    • E
    • F
    • F#
    • G
    • Ab
  • Agregar a la lista

    0 comentarios

    Ver todos los comentarios

    ¿Lograste tocar?

    7 Tocaron 0 Aún no

    ¡Graba un video tocando Into The Black y envíanoslo!

    00:00 / 00:00
    Outros vídeos desta música
    Repetir Calidad Automático
    Outros vídeos desta música
    00:00 / 00:00
    Automático
    OK