Cifra Club

Peaceful Day

Chrono Trigger

Cifrado: Principal (guitarra y guitarra eléctrica)
tono: Dm
Bpm = 90

| 1 e a a 2 e a a 3 e a a 4 e a a | 1 e a a 2 e a a 3 e a a 4 e a a |
|| -3---1---0-------1---0-----------|-----0---------------------------|
|| -1-----------3-----------3---1---|-1-3---3-------------------------|
||*-0-------------------------------|-----------------------------2---|
||*-2-------------------------------|---------------------------------|
|| -3~~~~~~~~~~~~-------------------|-1-------------------------------|
|| -----------------1---------------|---------------------------------|

| 1 e a a 2 e a a 3 e a a 4 e a a || 1 e a a 2 e a a 3 e a a 4 e a a |
|---------------------------------||---------0-------1---0-----------|
|-----------------0---------------||-------------------------3---1---|
|-2---------------0---------------||-0-------0---------------0-------|
|-3---------------0---------------||-----2-------2-------2-------2---|
|-3-------------------------------||-3---------------0---------------|
|-1---------------3---------------||---------------------------------|

| 1 e a a 2 e a a 3 e a a 4 e a a | 1 e a a 2 e a a 3 e a a 4 e a a |
|-3-------------------------------|---------0-------1---0-----------|
|-------------3---3---------------|-------------------------3---1---|
|-----2---------------------------|-0-------0---------------0-------|
|-0-----------------------0-------|-----2-------2-------2-------2---|
|---------------------2-------2---|-3---------------0---------------|
|-----------------3---------------|---------------------------------|

| 1 e a a 2 e a a 3 e a a 4 e a a | 1 e a a 2 e a a 3 e a a 4 e a a |
|-3-----------------------5---7---|-8-------7---5---3-------0-------|
|-------------------------0-------|---------------------------------|
|---------------------0---0-------|-----5---------------------------|
|---------2-------2---------------|-------------------------2-------|
|-----2-------2-------------------|-0-------------------2-------2---|
|-0-------------------------------|-----------------0---------------|
  
| 1 e a a 2 e a a 3 e a a 4 e a a | 1 e a a 2 e a a 3 e a a 4 e a a |
|-5-------3---1---0---------------|-------------0-------------------|
|-----------------1-------3-------|-1---0---1-------3-----------1---|
|-5-----------------------0-------|---------0---------------2-------|
|-3---------------2-------0-------|-----2-----------0---------------|
|-----------------3-------2-------|-0-------------------------------|
|---------------------------------|---------------------------------|

| 1 e a a 2 e a a 3 e a a 4 e a a | 1 e a a 2 e a a 3 e a a 4 e a a |
|-----------------------------3---|-5-------3---5---3-----------1---|
|-1---------------3---------------|-------------------------3-------|
|-----------------------------0---|-----5---------------0-----------|
|-------------3-----------0-------|-3-------------------0-----------|
|-----0---3-----------2-----------|---------------------------------|
|-1---------------3---------------|-----------------3---------------|

| 1 e a a 2 e a a 3 e a a 4 e a a | 1 e a a 2 e a a 3 e a a 4 e a a |
|-1-------0-------------------0---|-1-------0-----------------------|
|-------------3---2-------3-------|-------------3---1-------3-------|
|---------------------------------|-----2---------------------------|
|---------------------------------|-0-------------------------------|
|-3-------1-------0-------2---4---|---------------------------------|
|---------------------------------|-----------------1-------3-------|

| 1 e a a 2 e a a 3 e a a 4 e a a  || 1 e a a 2 e a a 3 e a a 4 e a a |
|--------------------------------- ||---------------------------------|
|-1------------------------------- ||---------------------------------|
|---------0-----------------------*||---------------------------------|
|-----2-------2-------------------*||---------------------------------|
|-3---------------3--------------- ||---------------------------------|
|--------------------------------- ||---------------------------------|
00:00 / 00:00
Otros videos de esta canción
Repetir
Otros videos de esta canción
Compositor no encontrado.
Colaboración y revisión:
  • Paulo Oliveira
112 vistas
    • ½ Tono
    • Am
    • Bbm
    • Bm
    • Cm
    • C#m
    • Dm
    • Ebm
    • Em
    • Fm
    • F#m
    • Gm
    • G#m
  • Agregar a la lista

    0 comentarios

    Ver todos los comentarios

    ¿Lograste tocar?

    0 Tocaron 0 Aún no

    ¡Graba un video tocando Peaceful Day y envíanoslo!

    00:00 / 00:00
    OK