Cifra Club

Onde você Mora?

Cidade Negra

Tab de bajo: Completa
Acompaña nuestras novedades de Cifra Club en español.
¡Sigue nuestro perfil en Instagram!
 |              G             |             D           |            C           |         Am                |
G|--------------|-------------|-------------|-----------|------------|-----------|-------------|-------------|---
D|--------------|-------------|-------7--7--|-------77--|------5--5--|-------55--|-------------|-------------|---                               
A|--------5--5--|-------5--5--|-5---9--9--9-|-5---9---9-|----7--7--7-|-3---7---7-|-------7--7--|-------7--7--|---                            
E|--3---7--7--7-|-3---7--7--7-|-------------|-----------|-8----------|-----------|-5---8--8--8-|-5---8--8--8-|-3-                            
Repete a seqüência com uma viradinha final em LÁ menor.                                                                                               
|--------------|-------------|-------------|-----------|------------|-----------|-------------|-------------|---                              
|--------------|-------------|-------7--7--|-------77--|------5--5--|-------55--|-------------|-------------|---                              
|--------5--5--|-------5--5--|-5---9--9--9-|-5---9---9-|----7--7--7-|-3---7---7-|-------7--7--|-------------|---                             
|--3---7--7--7-|-3---7--7--7-|-------------|-----------|-8----------|-----------|-5---8--8--8-|-5--5-7--7-8-|-3-
Refrão 2x:  Com certeza não está 100% correto, mas quem quiser dá uma corrigida  ta ok!
|-----|--------------------|--------------------|--------------------|-------|---------|--------|--------|--------
|-----|--------------------|--------------------|--------------------|-------|-10---10—|-9--9-9—|-7--7-7—|-5--5-5-
|-5-5-|-9-7-9-7--5-7-5-5-5-|-9-7-9-7--5-7-5-5-5-|-9-7-9-7--5-7-5-5-5-|-55-55-|---10----|-----9--|-----7--|-----5--
|-----|--------------------|--------------------|--------------------|-------|----10---|--------|--------|--------
             Eu sei q eu fui embora...
|---------|--------|-------|--------|-----|
|--5--5-5-|---5-5—-|----6—-|--------|-----|
|------5--|-5--5---|-7---7-|-6---65-|-----|
|---------|--------|-------|--------|--3--|
Composición de Marisa Monte / Nando Reis
Colaboración y revisión:
  • Jaimar Morais
25 vistas

0 comentarios

Ver todos los comentarios

¿Lograste tocar?

1 Tocaron 1 Aún no

¡Graba un video tocando Onde você Mora? y envíanoslo!

00:00 / 00:00
Outros vídeos desta música
Repetir Calidad Automático
Outros vídeos desta música
00:00 / 00:00
Automático
OK