Cifra Club

Pensamento

Cidade Negra

Cifrado: Principal (guitarra y guitarra eléctrica)
Acompaña nuestras novedades de Cifra Club en español.
¡Sigue nuestro perfil en Instagram!
tono: G
[Intro] G  Am  D  G  Am  D

E|-------------------------------------|
B|--8-8-8-7-7-7-5-5-5-----5------------|
G|--------------------7-7--------------| (2x)
D|-------------------------------------|
A|-------------------------------------|
E|-------------------------------------|

   G
Você precisa saber
                        Am
O que passa aqui dentro
          D
Eu vou falar pra você
   G
Você vai entender
                         Am
A força de um pensamento
           D
Pra nunca mais esquecer

 G
Pensamento é um momento
                   Am
Que nos leva a emoção
                D
Pensamento positivo
                G
Que faz bem ao coração
       Am  D
O mal não
       G  
O mal não
       Am  D
O mal não

 G
Sempre que para você chegar
   Am            D
Terá que atravessar
                G
A fronteira do pensar
                   Am  D
A fronteira do pensar
G
  E o pensamento é o fundamento
Am                       D
  Eu ganho o mundo sem sair do lugar
    G
Eu fui para o Japão

Com a força do pensar
    Am
Passei pelas ruínas
     D
E parei no Canadá
   G
Subi o Imalaia

Pra no alto cantar
    Am
Com a imaginação que faz
   D
Você viajar, todo mundo
G
  Estou sem lenço e o documento
          Am
Meu passaporte é visto em
 D
Todo lugar
  G
Acorda meu Brasil com o lado bom de pensar
   Am                     D
Detone o pesadelo pois o bom


Ainda virá

   G
Você precisa saber
                        Am
O que passa aqui dentro
          D
Eu vou falar pra você
   G
Você vai entender
                         Am
A força de um pensamento
           D
Pra nunca mais esquecer

[Solo] G  Am  D  G  Am  D
       G  Am  D  G  Am  D

E|-------------------------------------|
B|-15b17---b17r15-13-15-13-12-13----12-|
G|-------------------------------14----|
D|-------------------------------------|
A|-------------------------------------|
E|-------------------------------------|

E|-------------------------------------|
B|-------------------------------------|
G|-14-12-14-12-11-12-------------------|
D|-------------------12----------------|
A|----------------------14-------------|
E|-------------------------------------|

E|-------------------------------------|
B|-----8-8~--------10--10~-------------|
G|-4/7-7-7~----4/9-9---9~--------------|
D|-------------------------------------|
A|-------------------------------------|
E|-------------------------------------|

E|-17b19---b19r17---15p14-------7/-----|
B|------------------------15~---8/-----|
G|------------------------------7/-----|
D|-------------------------------------|
A|-------------------------------------|
E|-------------------------------------|

 G
Custe o tempo que custar
                Am
Que esse dia virá
D                      G
  Nunca pense em desistir, não
                       Am  D
Te aconselho a prosseguir
G
  O tempo voa rapaz
                   Am
Pegue seu sonho rapaz
                     D
A melhor hora e o momento

É você quem faz

   G
Recitem

Poesias e palavras de um rei
Am                  D
  Faça por onde que eu te ajudaei
     G
Recitem

Poesias e palavras de um rei
Am                  D
  Faça por onde que eu te ajudarei

   G
Recitem

Poesias e palavras de um rei
Am                  D
  Faça por onde que eu te ajudaei
     G
Recitem

Poesias e palavras de um rei
Am                  D
  Faça por onde que eu te ajudarei

[Final] G  Am  D  G  Am  D
        G  Am  D  G  Am  D
        G  Am  D  G  Am  D

E|-------------------------------------|
B|--8-8-8-7-7-7-5-5-5-----5------------|
G|--------------------7-7--------------| (2x)
D|-------------------------------------|
A|-------------------------------------|
E|-------------------------------------|

E|-------------------------------------|
B|-3-----3-----------------------------|
G|---4-----4---------------------------|
D|-----5-----5-------------------------|
A|-------------------------------------|
E|-------------------------------------|
Composición de Da Gamma
Colaboración y revisión:
  • Lucas Kappaun
  • André Mazin
2.609 vistas
    • ½ Tono
    • A
    • Bb
    • B
    • C
    • Db
    • D
    • Eb
    • E
    • F
    • F#
    • G
    • Ab
  • Agregar a la lista

    0 comentarios

    Ver todos los comentarios

    ¿Lograste tocar?

    29 Tocaron 1 Aún no

    ¡Graba un video tocando Pensamento y envíanoslo!

    00:00 / 00:00
    Outros vídeos desta música
    Repetir Calidad Automático
    Outros vídeos desta música
    00:00 / 00:00
    Automático
    Capítulos
    • Abertura
    • Acordes da Música
    • Ritmo da Música
    • Tocando a Música
    • Encerramento
    OK