Cifra Club

Lick 10

Cifra Club

Cifrado: Principal (guitarra y guitarra eléctrica)
Selo Cifra Club: esta cifra foi revisada para atender aos critérios oficiais da nossa Equipe de Qualidade.
tono: A
E|----------11h12h14p12p11h12h14/16-------------------|
B|-10h12h14-------------------------------------------|
G|----------------------------------------------------|
D|----------------------------------------------------|
A|----------------------------------------------------|
E|----------------------------------------------------|

E|-14h16p14p12----------------------------------------|
B|-------------16p14p12\10h12h14p12p10----------------|
G|-------------------------------------13p11p9\8~-----|
D|----------------------------------------------------|
A|----------------------------------------------------|
E|----------------------------------------------------|

Otros videos de esta canción
    312 exhibiciones
      • ½ Tono
      • A
      • Bb
      • B
      • C
      • Db
      • D
      • Eb
      • E
      • F
      • F#
      • G
      • Ab
    • Agregar a la lista

    Afinación de cifrado

    Afinador online

      OK