Cifra Club

A Praia

Cine

Tab de bajo: Principal
Já pensou em usar uma coleção de roupas do Cifra Club? Responda as perguntas abaixo e nos ajude nessa missão! →
G|----------------------------------------------------
D|----------------------------------------------------
A|--5--7-7--8-8--8\3--3-3--3-3--5---------------------
E|---------------------------------3--3-3--5-5--5/1---

G|-----------------------------------------------------------
D|------------------------7-7-7-7-7--------------------------
A|--------------3-3------------------5-7-8-8-7-7-8-8-10-10-10
E|--1-1--1-1-1-------3-3-------------------------------------

G|----------------------------------------------------
D|----------------------------------------------------
A|--5--7-7--8-8--8\3--3-3--3-3--5---------------------
E|---------------------------------3--3-3--5-5--5/1---

G|-----------------------------------------------------------
D|------------------------7-7-7-7-7--------------------------
A|--------------3-3------------------5-7-8-8-7-7-8-8-10-10-10
E|--1-1--1-1-1-------3-3-------------------------------------

Hoje vou cantar por que me faz bem...
G|----------------------------------------------------
D|-------2-2--3-3--5-------2---2-3-2------------------
A|--3-3---------------3--3---3-------3----------------
E|----------------------------------------------------

G|----------------------------------------------------
D|----------------------------------------------------
A|------7-7-----7-------7---7--8-8-8------------------
E|--5-5-----5-5---5---5---5---------------------------

G|----------------------------------------------------
D|-------2-2--3-3--5-------2---2-3-2------------------
A|--3-3---------------3--3---3-------3----------------
E|----------------------------------------------------

G|----------------------------------------------------
D|----------------------------------------------------
A|------7-7-----7-------7---7--8-8-8------------------
E|--5-5-----5-5---5---5---5---------------------------

Não, não vou te levar pra um show...
G|-------------------------------------9---9-10-9-----
D|-------------------10-12-10-12-12-12------------12--
A|----------------------------------------------------
E|--1-1--1---1--1-1-----------------------------------

G|-------------------------------------9--------------
D|-------------------10-12-10-12-12-12----------------
A|----------------------------------------------------
E|--1-1--1---1--1-1-----------------------------------

(refrão)
Baby, faça as malas... 
G|----------------------------------------------------
D|----------------------------------------------------
A|--5--7-7--8-8--8\3--3-3--3-3--5---------------------
E|---------------------------------3--3-3--5-5--5/1---

G|-----------------------------------------------------------
D|------------------------7-7-7-7-7--------------------------
A|--------------3-3------------------5-7-8-8-7-7-8-8-10-10-10
E|--1-1--1-1-1-------3-3-------------------------------------

G|----------------------------------------------------
D|----------------------------------------------------
A|--5--7-7--8-8--8\3--3-3--3-3--5---------------------
E|---------------------------------3--3-3--5-5--5/1---

G|-----------------------------------------------------------
D|------------------------7-7-7-7-7--------------------------
A|--------------3-3------------------5-7-8-8-7-7-8-8-10-10-10
E|--1-1--1-1-1-------3-3-------------------------------------

Não, liga pro meu carro...
G|----------------------------------------------------
D|--10-10---10-10---10-10---10-10----12-12-12-12------
A|--------------------------------10------------------
E|----------------------------------------------------

G|----------------------------------------------------
D|----------------------------------------------------
A|--12-12---12-12---12-12---12-12-----8-8-8-8---------
E|---------------------------------10-----------------

G|----------------------------------------------------
D|--10-10---10-10---10-10---10-10----12-12-12-12------
A|--------------------------------10------------------
E|----------------------------------------------------

G|----------------------------------------------------
D|----------------------------------------------------
A|--12-12---12-12---12-12---12-12-----8-8-8-8---------
E|---------------------------------10-----------------

Hoje vou cantar porque me faz bem...
G|----------------------------------------------------
D|----10-----10------10--10-12-12-12------------------
A|----------------------------------------------------
E|--8----8-8----8---8--8------------------------------

G|----------------------------------------------------
D|----7-----7-------7---------------------------------
A|----------------------8-8-8-8-----------------------
E|--5---5-5---5---5---5-------------------------------

G|----------------------------------------------------
D|----10-----10------10--10-12-12-12------------------
A|----------------------------------------------------
E|--8----8-8----8---8--8------------------------------

G|----------------------------------------------------
D|----7-----7-------7---------------------------------
A|----------------------8-8-8-8-----------------------
E|--5---5-5---5---5---5-------------------------------

Não, não vou te levar pra um show...
G|-------------------------------------9---9-10-9-----
D|-------------------10-12-10-12-12-12------------12--
A|----------------------------------------------------
E|--1-1--1---1--1-1-----------------------------------

G|-------------------------------------9--------------
D|-------------------10-12-10-12-12-12----------------
A|----------------------------------------------------
E|--1-1--1---1--1-1-----------------------------------

(refrão)

Eu prometi mostrar o mar
As ondas hoje vão cantar...
G|----------------------------------------------------
D|----------------------------------------------------
A|----------------------------------------------------
E|--1-1-1-1-1-1-1-1-1-1-1-1-3-3-3-3-3-3-3-3-3-3-3-3-3-

G|----------------------------------------------------
D|----------------------------------------------------
A|----------------------------------------------------
E|--1-1-1-1-1-1-1-1-1-1-1-1-3-3-3-3-3-3-3-3-3-3-3-3-3-

G|----------------------------------------------------
D|----------------------------------------------------
A|--------------------------0-0-0-0-0-0-0-------------
E|--1-1-1-1-1-1-1-1-1-1-1-1---------------3-3-3-3-3-3-

G|----------------------------------------------------
D|-------2h3------3p2-----2h3-------------------------
A|----------------------------------------------------
E|--1-1-------1-1-----1-1-----1-1-1-1-----------------

(refrão)
Composición de Danilo Valbusa / Diego Silveira / Pedro Caropreso
Colaboración y revisión:
  • Johannes Faga
29 vistas

0 comentarios

Ver todos los comentarios

¿Lograste tocar?

0 Tocaron 0 Aún no

¡Graba un video tocando A Praia y envíanoslo!

00:00 / 00:00
Outros vídeos desta música
Repetir Calidad Automático
Outros vídeos desta música
00:00 / 00:00
Automático
OK