Cifra Club

Banda de garage

Ciro Y Los Persas

Cifrado: Principal (guitarra y guitarra eléctrica)
tono: C#m
Intro:

Riff:
    A5      B5       A5  E5
E|--------------|--|--------|--| |
B|--------------|--|--------|--| |
G|--2--h4-4-2-4-|--|-2---4--|--| |
D|--2--h4-4-2-4-| x3|-2---2--|x2||
A|--0---2-2-0-2-|--|-0---2--|--| |
E|--------------|--|-----0--|--| |

Estrofa 1:
                                            A5   E5
Y que mas para imaginar entre calles de alquitrán
                                           A5   E5
Y que mas futbol fabricas y una nena de algodón
(sobre riff)
pateá la calle sin que se desmaye esa ruidosa ilusión

señor dame aliento sangre sudor y tiempo y te haré rock&roll

Estribillo:
          A5 G#5 A5         G#5 A5 A#5
E|-------|---------|-------|---------|
B|-------|---------|-------|---------|
G|-------|---------|-------|---------|
D|-------|--7-6-7--|-------|--6-7-8--|
a|--F#5--|--7-6-7--|--F#5--|--6-7-8--|
E|-------|--5-4-5--|-------|--4-5-6--|

F#     A5 G#5 A5
Sabe  adonde va
F#    G#5 A5 A#5
sabe de donde es

(riff)
ah ah-ah ah-ah


Estrofa 2:
                                                      A5 E5
van a hablar a quererte embalsamar zarpaditos de ocasión
                                                    A5 E5
vividores, dealers, amores y también algún traidor.
(riff)
pero en tu alma vas a creer, aunque la hieran vas a creer,

lista estás, banda de garage, nos espera el mundo afuera.

Estribillo:

F#     A5 G#5 A5
Sabe  adonde va
F#    G#5 A5 A#5
sabe de donde es

(riff)
ah ah-ah ah-ah

Puente:
G                      A
no hay una ruta más deseada
G                           A
que la que lleva hasta tu piel
F               Am                      G
ya te escucho gritar, nada me da tanto placer.

E|---------------------------------|--| |
B|---------------------------------|--| |
g|4h5-4--2--2h4-0-0h2-0------------|--||
D|-----------------------2--2h4-2-0| x2||
A|---------------------------------|--| |
E|---------------------------------|--| |

Solo de armónica sobre:
    A5      B5       A5  E5
E|--------------|--|--------| |--||-------|--||
B|--------------|--|--------| |--||-------|--||
G|--2--h4-4-2-4-|--|-2---4--| |--||--G#m--|--||
D|--2--h4-4-2-4-| x3|-2---2--||x2||-------|x4||
A|--0---2-2-0-2-|--|-0---2--| |--||-------|--||
E|--------------|--|-----0--| |--||-------|--||

Estribillo:

F#     A5 G#5 A5
Sabe  adonde va
F#    G#5 A5 A#5
sabe de donde es

(riff)
ah ah-ah ah-ah


G                       A
cuando las luces ya se apagan
G                        A
y haces temblar todo el país
F                    Am                 G
estoy como loco, ves?, desesperado por salir.

E|---------------------------------|--| |
B|---------------------------------|--| |
g|4h5-4--2--2h4-0-0h2-0------------|--||
D|-----------------------2--2h4-2-0| x2||
A|---------------------------------|--| |
E|---------------------------------|--| |

Repite:
(riff)
ah ah-ah ah-ah
00:00 / 00:00
Otros videos de esta canción
Repetir
Otros videos de esta canción
Compositor no encontrado.
17 vistas
    • ½ Tono
    • Am
    • Bbm
    • Bm
    • Cm
    • C#m
    • Dm
    • Ebm
    • Em
    • Fm
    • F#m
    • Gm
    • G#m
  • Agregar a la lista

    0 comentarios

    Ver todos los comentarios

    ¿Lograste tocar?

    0 Tocaron 0 Aún no

    ¡Graba un video tocando Banda de garage y envíanoslo!

    00:00 / 00:00
    OK