Cifra Club

Barón Rojo

Ciro Y Los Persas

Cifrado: Principal (guitarra y guitarra eléctrica)
tono: Em
Intro:

Riff 1
E|-----------------|
B|-----5-7-8-------|
G|-5-6--------X4---|
D|----------------|
A|-----------------|
E|-----------------|

Riff 2
E|----------------------------------------------------------------------|
B|------5-7-8---------8-10-11------------10-12-13----------5-7-8--------|
G|-5-6-------X2--8-9---------X2--10-11-----------X2---5-6-------X2------|
D|----------------------------------------------------------------------|
A|----------------------------------------------------------------------|
E|----------------------------------------------------------------------|


A5
Al canario un gran armario,
E5
un florero al tulipán campeón,
G5                      D5
es el premio que vas a llevarte.

A5
Esas nenas son cadenas,
E5
pero que ricas que son
G5                      D5
la bola del preso era el blackperry.

Riff 2

A5
En el día juntas migas,
E5
regulando te nace el motor
G5                      D5
y a la noche encendés las turbinas.

G5
Y nadie te para hoy ya ves,
D5
ni la nube ni el biplano aquel.
F5                       C5
No hay sustentación en el vacío.

G5
El pañuelo vuela horizontal ,
D5
y a la noche cae otra vez más ,
C5                      D5
sin los instrumentos, sin destino.

B5
Volaría así Richthofen,
B5
volaría así el barón,
B5                      A5   G5   E5
volaría así Richthofen, ahh, ahh, ahh!

Riff 2

A5
Hay quien sale, hay quien no vuelve,
E5
hay quien no solo espera otra misión,
G5                     D5
y sumar la marca al fuselaje.

G5
Y nadie te para hoy ya ves ,
D5
ni la nube ni el biplano aquel,
F5                         C5
no hay sustentación en el vacío.

G5
El pañuelo vuela horizontal,
D5
el gatillo arde otra vez más,
C5                     D5
en picada sobre el objetivo.

B5
Volaría así Richthofen
B5
volaría así el Baron
B5                        A5  G5  E5
volaría así Richtofen , ahh, ahh, ahh !

(repite)
Volaría así Píñeyro,
volaría así el varón,
volaría así , Píñeyro, ahh !

Volaría así Richthofen
volaría así el Baron
volaría así don Newbery , ahh !
Volaría así Piccione,
volaría así Dumont,
volaría así Hans Freitz , ahh !
Composición de Ciro Martinez
14 vistas
    • ½ Tono
    • Am
    • Bbm
    • Bm
    • Cm
    • C#m
    • Dm
    • Ebm
    • Em
    • Fm
    • F#m
    • Gm
    • G#m
  • Agregar a la lista

    0 comentarios

    Ver todos los comentarios

    ¿Lograste tocar?

    0 Tocaron 0 Aún no

    ¡Graba un video tocando Barón Rojo y envíanoslo!

    00:00 / 00:00
    Outros vídeos desta música
    Repetir Calidad Automático
    Outros vídeos desta música
    00:00 / 00:00
    Automático
    OK