Cifra Club

Ciudad Animal

Ciro Y Los Persas

Cifrado: Principal (guitarra y guitarra eléctrica)
tono: Bm

          RIFF 1                           RIFF 2
E|-------------------------| |-----------------------------|
B|-------------------------| |-----------------------------|
G|-----2-----1-----2-----1-| |-------2-----2-----2-----2---|
D|---0-----0-----0-----0---| |-----0-----0-----0-----0-----|
A|-------2-----------2-----| |---------2-----2-----2-------|
E|-0-----------0-----------| |---0-------------------------|

           RIFF 3
E|---------------------------| ||                             ||
B|---------------------------| || C NDE DICE POR EJEMPLO      ||
G|-------2-----2-----2-----2-| || "riff 1(sobre E)" BG NIFICA ||
D|-----0-----0-----0-----0---| || QUE SE PUEDE TOCAR EL ACORDE||
A|---------2-----------2-----| || E EN VEZ DEL RIFF           ||
E|---3-----------2-----------| --------------------------------



INTRO:    Riff 1 x2

riff 1(sobre E)           riff 2(sobre G)
 Asoma, toda su fuerza levanta
riff 1
 Parece
                       riff 2(sobre G-A)  riff 1
 hoy va a ser un dia normal, igual, que ayer

 Elefante mil pies, cruza la calle veloz
riff 3(sobre G-A)  riff 1
 vuelan aves de papel
riff 1
 Despierta, la selva
                    riff 3(sobre G-F#) riff 1
 sale el mundo a buscar el pan y el mango

G                A                   riff 1
 Y un viejo que hoy ya no verá este sol
G        F#             riff 1
 y un joven que no durmió
G     A          riff 1
 una niña, niña ya no es más
G          F#                E
 llora un bebé, por primera vez

                    RIFF 4
E|---------------------------------------------|
B|---------------------------------------------|
G|---------------------------------------------|
D|--2---------2-------4-2---------2-5-2-5-2-5--| X2
A|----2-4-5-4---2-4-5-----2-4-5-4--------------|
E|---------------------------------------------|

E
 Arranca la jungla su motor
 suenan las bocinas y el tambor
   G       F#           E
 copan avenidas y el calor

 Cebras y panteras que desfilan
 y el rinoceronte en doble fila
G             F#                    E
 los gorilas siempre con sillón de piel… de mono

A              G                       D
 Dame en esta jungla un lugar que se pueda
A            G                D
 subir a la copa del árbol mayor
A              G                D
 para ver un cielo lejos de promesas huecas
A            G                  D
 envidias codicias y de falso amor

riff 1 x2

G              A                   E
 Y un viejo tucán ya no verá este sol
G         F#           E
 hijo ‘e tigre no durmió
G     A          E
 suricata ya no será igual
G          F#                E
 grita un loro, por primera vez

    RIFF 4  x1

E
 La jirafa muestra su elegancia
                                         G
y una hiena cumple una venganza, pa, pa, pa, pa, pa
   F#                E
 y no, y no resulta ser
 El mono tití vende quiniela,
 y el león se limpia lentejuelas
        G              F#                     E
 de la noche, porque ahora, porque ahora es juez

E|------------------------|
B|------------------------|
G|------------------------|
D|--2---------2-5-2-5-2-5-|
A|----2-4-5-4-------------|
E|------------------------|


A              G                       D
 Dame en esta jungla un lugar que se pueda
A            G                D
 subir a la copa del árbol mayor
A              G                D
 para ver un cielo lejos de promesas huecas
A            G                  D
 envidias codicias y de falso amor
A              G                       D
 Dame en esta jungla un lugar que se pueda
A           G                    D
mirar a los ojos sin pensar después
A            G                D
 y ver a la luna libre de tinieblas
A              G                  D
 tinieblas del alma que no dejan ver

 RIFF 1   x1 y medio

A            G          D
 Oh, oh, oh, oh, oh, oh oh    X4
Composición de Andres ciro Martinez
9 vistas
    • ½ Tono
    • Am
    • Bbm
    • Bm
    • Cm
    • C#m
    • Dm
    • Ebm
    • Em
    • Fm
    • F#m
    • Gm
    • G#m
  • Agregar a la lista

    0 comentarios

    Ver todos los comentarios

    ¿Lograste tocar?

    0 Tocaron 0 Aún no

    ¡Graba un video tocando Ciudad Animal y envíanoslo!

    00:00 / 00:00
    Outros vídeos desta música
    Repetir Calidad Automático
    Outros vídeos desta música
    00:00 / 00:00
    Automático
    OK