Cifra Club

Juira

Ciro Y Los Persas

Cifrado: Principal (guitarra y guitarra eléctrica)
tono: F#m
G||--10--10---10-10-10--10--10---10--10--10-10--10-10--|
D||----------------------------------------------------|
A||----------------------------------------------------|
E||----------------------------------------------------|

e||--13-13--13-13---|
b||--10-10--10-10---|
G||--10-10--10-10---|
D||-----------------|
A||-----------------|
E||-----------------|


e||--13-p10---10-10-10--13-p10---13-p10--10-10--10-10--|
b||--10--10---10-10-10--10--10---10--10--10-10--10-10--|
G||--10--10---10-10-10--10--10---10--10--10-10--10-10--|
D||----------------------------------------------------|
A||----------------------------------------------------|
E||----------------------------------------------------|



Intro de vientos sobre Dm


       Dm
Te desgarra, te arranca las tiras de la ropa que te quedó puesta
Y no garpa tu blanca sonrisa, no le alcanza si tiene tu piel
        G
Es tan loco, ayer eras el lobo, Caperuza te amaba un montón
          Dm
Hoy te destripa con un guardabosques que le sopla
En la canasta le queda un turrón.


Dm
Juira! Lo roto se tira
Juira! Voy pagándolo
Juira! Amor de mi vida
Juira! Voy pagándolo.


      Dm
Como cae el sol en la cara, desparrama su don singular
Una ducha caliente sin agua,ella te besa y te promete más
       G
Despertás con la policía golpeando la entrada
Mandás cartas documento, como ayer cartas de amor
      Dm
Ella dio vuelta lo que decía, roto el parche, girando el tambor.


Dm
Juira! Lo roto se tira
Juira! Voy pagándolo
Juira! Amor de mi vida
Juira! Voy pagándolo.



Vientos sobre Dm


Dm
Solamente decir no vale nada
Solamente desear no vale nada…


Solo de guitarra sobre Dm



Dm
Solamente decir no vale nada
Solamente desear no vale nada…


Dm
Juira!
Juira!
Juira!
Juira!
00:00 / 00:00
Otros videos de esta canción
Repetir
Otros videos de esta canción
Composición de Andres ciro Martinez
23 vistas
    • ½ Tono
    • Am
    • Bbm
    • Bm
    • Cm
    • C#m
    • Dm
    • Ebm
    • Em
    • Fm
    • F#m
    • Gm
    • G#m
  • Agregar a la lista

    0 comentarios

    Ver todos los comentarios
    00:00 / 00:00
    OK