Cifra Club

Paso a paso

Ciro Y Los Persas

Cifrado: Principal (guitarra y guitarra eléctrica)
tono: F
Intro:
Guitarra 1:                                       Solo en  Solo en
            Gm                                    1º & 3º  2º y 4º
e|/3~~~~~~~~~~~~~~~~~~~~-|---------------------|x|------|x|-------|x|--||
b|/3~~~~~~~~~~~~~~~~~~~~-|---------------------|x|------|x|-------|x|--||
g|/3~~~~~~~~~~~~~~~~~~~~-|---------------------|x|------|x|-------|x|--||
d|/5~~~~~~~~~~~~~~~~~~~~-|---------------------|x|------|x|-------|x|x4||
A|-----------------------|---------------------| x|----10|x|-------|x|--||
E|-----------------------|---------------------| x|8-10--|x|-8-5-8-|x|--||
Guitarra 2:
            Gm                           F
E|--3-----3-----3-----3--|-1-----1-----1-----1-| x|------|x|-------|x|--||
B|--3-----3-----3-----3--|-1-----1-----1-----1-| x|------|x|-------|x|--||
G|--3-----3-----3-----3--|-2-----2-----2-----2-| x|------|x|-------|x|--||
D|--5-----5-----5-----5--|-3-----3-----3-----3-| x|------|x|-------|x|x4||
A|-----------------------|---------------------| x|----10|x|-------|x|--||
E|-----------------------|---------------------| x|8-10--|x|-8-5-8-|x|--||
Teclado:
            Gm                           F
E|--3-----3-----3-----3-|--1-----1-----1-----1-| x|------|x|-------|x|--||
B|--3-----3-----3-----3-|--1-----1-----1-----1-| x|------|x|-------|x|--||
G|--3-----3-----3-----3-|--1-----2-----2-----2-| x|------|x|-------|x|--||
d|5--5--5--5--5--5--5--5|3--3--3--3--3--3--3--3|x|------|x|-------|x|x4||
A|----------------------|----------------------| x|------|x|-------|x|--||
E|----------------------|----------------------| x|------|x|-------|x|--||
Bajo:
G|----------------------|----------------------| x|------|x|-------|x|--||
D|----------------------|-3--------------------| x|------|x|-------|x|x4||
A|----------------------|----------------------| x|----10|x|-------|x|--||
E|-3h6-5---1/3----------|----1--1-1-1----------| x|8-10--|x|-8-5-8-|x|--||

Estrofa 1:

Guitarra 1:
            Gm
E|-----------------------|---------------------|------|--| |
b|/3~~~~~~~~~~~~~~~~~~~~-|---------------------|------|--||
g|/3~~~~~~~~~~~~~~~~~~~~-|---------------------|------|--||
d|/5~~~~~~~~~~~~~~~~~~~~-|---------------------|------|x4||
A|-----------------------|---------------------|------|--| |
E|-----------------------|---------------------|------|--| |
Guitarra 2:
            Gm                       F
E|--3-----3-----3-----3--|-1-----1-----1-----1-|------|--| |
B|--3-----3-----3-----3--|-1-----1-----1-----1-|------|--| |
G|--3-----3-----3-----3--|-2-----2-----2-----2-|------|--| |
D|--5-----5-----5-----5--|-3-----3-----3-----3-|------| x4||
A|-----------------------|---------------------|-3-0-3|--| |
E|-----------------------|---------------------|------|--| |
PM                                               .....
Teclado:
            Gm                           F
E|--3-----3-----3-----3-|--1-----1-----1-----1-|------|--| |
B|--3-----3-----3-----3-|--1-----1-----1-----1-|------|--| |
G|--3-----3-----3-----3-|--1-----2-----2-----2-|------|--| |
d|5--5--5--5--5--5--5--5|3--3--3--3--3--3--3--3|------|x4||
A|----------------------|----------------------|------|--| |
E|----------------------|----------------------|------|--| |
Bajo:
G|----------------------|----------------------|------|--| |
D|-5-----------5--------|-3--------------------|------| x4||
A|----------------------|----------------------|------|--| |
E|---3--3-3-3----3-3-3-3|----1--1-1-1---1-11---|-8-5-8|--| |

Gm                              F
Somos hombres de la tierra de Latinoamérica
      Gm                       F
descendemos de los indios de Europa y África
Gm                             F
siempre hubo algún imperio que impidió la libertad
        Gm                          F
Siempre compraron cipayos que traicionan la verdad

Estribillo:
Guitarra 1:
         Gm                      F
E|--------------------------|----------|--| |
B|------11-10-11-13-11-11p10|-----10/8-|--| |
G|--------------------------|---10-----|--| |
d|10h12---------------------|----------|x4||
A|--------------------------|----------|--| |
E|--------------------------|----------|--| |
Guitarra 2:
            Gm                       F
E|--3-----3-----3-----3--|-1-----1-----1-----1-|------|--| |
B|--3-----3-----3-----3--|-1-----1-----1-----1-|------|--| |
G|--3-----3-----3-----3--|-2-----2-----2-----2-|------|--| |
D|--5-----5-----5-----5--|-3-----3-----3-----3-|------| x4||
A|-----------------------|---------------------|-3-0-3|--| |
E|-----------------------|---------------------|------|--| |
PM                                               .....
Bajo:
G|-----------------------|---------------------|------|--| |
D|-----------------------|---------------------|------|--| |
A|-----------------------|---------------------|-3-0-3| x4||
E|1/3-3-3-----1/3-3-3----|--1/3--1--1--3---1---|------|--||

Gm         F
Uh! Ya es tiempo de empezar
Gm         F
Uh! paso a paso a caminar
Gm           F
Uh! pega el viento en contra y a favor
Gm          F
Uh! paso a paso con fe y con valor.

Repite intro

Estrofa 2:
(todo idéntico)

Gm                              F
Hizo falta mucho tiempo, mucha sangre y mucho error
Gm                           F
hizo falta que se viera quién era el explotador
Gm                            F
es bueno tener un sueño pero es mejor tener dos
Gm                                F
a ser un país muy grande, el otro decidílo vos

Estribillo:
(idéntico)
Gm         F
Uh! Ya es tiempo de empezar
Gm         F
Uh! paso a paso a caminar
Gm           F
Uh! pega el viento en contra y a favor
Gm          F
Uh! paso a paso con fe y con valor.

Puente:
Guitarra 1:
    F             Gm                        C
E|--1------------|-3-----------------|--| |--3------||
B|--1------------|-3-----------------|--| |--5------||
G|--2------------|-3-----------------|--| |--5------||
D|--3------------|-5-----------------| x2||--5------||
A|--3------------|-5-----------------|--| |--3------||
E|--1------------|-3-----------------|--| |---------||
Guitarra 2:
                     Solo 1º vez
E|---------------|-------------------|--| |---------||
B|---------------|-------------------|--| |13b13br11||
G|---------------| 10h12p10-----------|--||---------||
D|---------------|---------8h10-8h10-| x2||---------||
A|---------------|-------------------|--| |---------||
E|---------------|-------------------|--| |---------||

F                                    Gm
Sobra el alimento pero que es lo que pasa
F                             Gm
sobra el alimento pero falta educación...
C
dominación...

(Intro)

Gm
Hay una sola justicia que parece que no está
   F                            C
la injusticia tiene hija se llama inseguridad
Gm
somos lo que nos enseñan, lo que alcanzamos a ver
    F                           C
si nunca pasaste hambre nunca lo vas a entender
Gm
Criticas al boliviano y trabaja más que vos,
    F                           C
criticas al peruano, fueron Imperio del Sol
Gm
criticas al brasilero y hoy es hermano mayor
    F                           C
criticas a los villeros y escupis por el balcón

Estribillo:
(idéntico pero con 2 vueltas antes)

Paso a paso

Venga al viento

Puente:
(idéntico)
F                               Gm
Cuando hay amor hay voluntad y esperanza
F                         Gm
cuando hay amor no veo resignación
F                         Gm
cuando hay amor existe la tolerancia
C
cuando hay amor...

Estribillo:
Gm         F
Uh! Ya es tiempo de empezar
Gm         F
Uh! paso a paso a caminar
Gm           F
Uh! pega el viento en contra y a favor
Gm          F
Uh! paso a paso con fe y con valor.
Compositor não encontrado.
    • ½ Tono
    • A
    • Bb
    • B
    • C
    • Db
    • D
    • Eb
    • E
    • F
    • F#
    • G
    • Ab
  • Agregar a la lista

    0 comentarios

    Ver todos los comentarios

    ¿Lograste tocar?

    0 Tocaron 0 Aún no

    ¡Graba un video tocando Paso a paso y envíanoslo!

    00:00 / 00:00
    Outros vídeos desta música
    Repetir Calidad Automático
    Outros vídeos desta música
    00:00 / 00:00
    Automático
    OK