Cifra Club

Un hombre más

Ciro Y Los Persas

Cifrado: Principal (guitarra y guitarra eléctrica)
tono: Dm
INTRO: sobre Do-Lab
             C -Ab 
             C -Ab 
             C -F 
   Parte 1:
E|-----------------------------------------|
B|-----------------------------------------|
G|--5h7---7b9r7---7------------------------|
D|--------------------5---6---5/3---5---2--|
A|-----------------------------------------|
E|-----------------------------------------|

E|------------------------------------------|
B|------------------------------------------|
G|--5h7---7b9r7---7-------------------------|
D|--------------------5---6h8---8/10---6---5|
A|------------------------------------------|
E|------------------------------------------|

 Parte 2:
E|------------------------------------------|
B|------------------------------------------|
G|--5h7---7b9r7---7-------------------------|
D|--------------------5---6---5/3---5---2---|
A|------------------------------------------|
E|------------------------------------------|

E|-------------------------------------------|
B|-------------------------------------------|
G|--5h7---7b9r7---7--------------------------|
D|--------------------5---7/9/10-------------|
A|-------------------------------------------|
E|-------------------------------------------|



C -Ab  x2



C                      Ab 
Llegó la mañana, y llegó mi despertar
C                         Ab 
un cielo rosado y claro, pero no era mi lugar
C                         Ab 
Me senté despacio, vi un horizonte sin final
C                         Ab 
lo primero fue el hambre, después vino lo demás


C                         Ab 
Encontré otros similares, y otros más también
C                       Ab 
peleamos por unas uvas, que se veían bien
C                         Ab 
aprendí a unirme a otros, para resistir
Am                        F 
fui buscando ser más hábil y sobrevivir


C                   F 
Cultivé la tierra,crié bestias, leí el sol
Bb                           Eb 
fui el mago, fui el verdugo, fui el emperador
C                         Ab 
escribí mil versos, hice armas, las usé
G                         F 
y una noche prendí fuego Roma y me embriagué


Repite el tab parte 2


C                      Ab 
Traicioné a los míos, dí mi vida por creer
C                      Ab 
fui rico y sin alma, fui el más pobre y tuve fe
C                         Ab 
fui ladrón, fui pordiosero, de mi droga convidé
A                         F 
le mentí y la patria y por mi patria yo maté


C                    F 
Cultivé la tierra, crié bestias, leí el sol
Bb                           Eb 
fui el mago, fui el verdugo, fui el emperador
C                         Ab 
escribí mil versos, hice armas, las usé
G                         F 
y una noche prendí fuego Roma y me embriagué


C     F      Bb             Eb 
Uh uh uh, estoy aquí, un hombre más
C     Ab     G              F 
Uh uh uh, toma de mí, busca tu paz


C -F -C -Ab 

F -C  x2


Cierro la puerta ahora

afuera queda el bullicio

me siento a los pies de la cama

¿Madre, puedes verme?



Solo:


E|------------------------------------------------|
B|------------------------------------------------|
G|-------7b9-----------7p5------------------------|
D|--/5---------5---6------------------------------|
A|------------------------------------------------|
E|------------------------------------------------|

E|-------------------------------------------------|
B|-------------------------------------------------|
G|--7---7b9---5h7/12---12b13r12---10---12b13r12---9|
D|-------------------------------------------------|
A|-------------------------------------------------|
E|-------------------------------------------------|

E|-------------------------------------------------|
B|-------10--------13---15b17---17---17---17r15----|
G|--12--------12-----------------------------------|
D|-------------------------------------------------|
A|-------------------------------------------------|
E|-------------------------------------------------|

E|-------15b17---15h16p15h16---15------------------|
B|--13------------------------------16h15----------|
G|------------------------------------------15-----|
D|-------------------------------------------------|
A|-------------------------------------------------|
E|-------------------------------------------------|

E|--------------------------------------------------|
B|--------------------------------------------------|
G|--13h15p13---12-----------------------------------|
D|--------------------------------------------------|
A|--------------------------------------------------|
E|--------------------------------------------------|

E|---------------------------------------------------|
B|--------13---15b16r15p13h15--------13--------------|
G|--/14-------------------------12-------------------|
D|---------------------------------------------------|
A|---------------------------------------------------|
E|---------------------------------------------------|

E|---------------------------------------------------|
B|---------------------------------------------------|
G|--12/14---14b15r14---14b15r14---14b15r14p12h14-----|
D|-------------------------------------------------14|
A|---------------------------------------------------|
E|---------------------------------------------------|


C                        F 
Fui apartado, ignorado, perdí la razón
Bb                               Eb 
he sentido el fuego, el hambre, el miedo, humillación
C                         Ab 
fui tan poderoso y ciego, derroché la sal
G                         F 
he visto a los muertos enseñando a galopar


C     F      Bb             Eb 
Uh uh uh, estoy aquí, un hombre más
C     Ab     G              F 
uh uh uh,toma de mí, busca tu paz



Fin:
    C -F -C -Ab 

    F -C 
00:00 / 00:00
Otros videos de esta canción
Repetir
Otros videos de esta canción
Composición de Andrés Ciro Martinez
13 vistas
    • ½ Tono
    • Am
    • Bbm
    • Bm
    • Cm
    • C#m
    • Dm
    • Ebm
    • Em
    • Fm
    • F#m
    • Gm
    • G#m
  • Agregar a la lista

    0 comentarios

    Ver todos los comentarios

    ¿Lograste tocar?

    0 Tocaron 0 Aún no

    ¡Graba un video tocando Un hombre más y envíanoslo!

    00:00 / 00:00
    OK