Cifra Club

Coming Home

City And Colour

Cifrado: Principal (guitarra y guitarra eléctrica)
tono: A (con acordes en la forma de G) Capotraste en 2ª casa
                         Tabbed By: Omarion111

   Capo the 2nd fret*(tabs are written in relation to the capo)

   Intro
e|--0---------------|
B|--3/5\3p0---------|
G|----------2/4\2p0-|
D|------------------|
A|------------------|
E|------------------|

e|--00-0-0---000-00---000-0--0-0-00-0-0-000---0--------------|
B|--00-0-0---000-00---000-0--0-0-00-0-0-000---3/5\3p0--------|
G|--00-0-0---000-00---000-0--0-0-00-0-0-000-----------2/4\2p0|
D|--77-7-7---444-44---222-2--2/4-44-4/7-777------------------|
A|--99-9-9---555-55---333-3--3/5-55-5/9-999------------------|
E|--00-0-0---000-00---000-0--0-0-00-0-0-000------------------|

                     Verse
e|--0--00-0--00-0-000-000-0----000----0-0-0--------0-0-00-0-0-000|
B|--0--10-0--00-0-000-000-0----000----0-0-0--------0-0-00-0-0-000|
G|--0--00-0--00-0-000-000-0----000----0-0-0--------0-0-00-0-0-000|
D|--2--22-2--22/4-444/777-7----444----2-2-2--------2/4-44-4/7-777|
A|--3--33-3--33/5-555/999-9----555----3-3-3--------3/5-55-5/9-999|
E|--0--00-0--00-0-000-000-0----000----0-0-0--------0-0-00-0-0-000|
                        I've been down to Georga...

   Chorus (overlapping guitar)
e|-/8-7-0-----------/8-7-0----------|
B|--------7h9--------------7h9------|
G|-----------7/9--------------7/9-7-|
D|----------------------------------|
A|----------------------------------|
E|----------------------------------|

   1st Solo (slight delay effect, takes over the guitar in the chorus)
e|---------------------------------------------------------|
B|------8\5-5----------------------------------------------|
G|--7/9---------7/9-7---7-5-4------------------------------|
D|---------------------------7/9-7-5-5/7-5-----------------|
A|----------------------------------------7----7/10-9------|
E|----------------------------------------------------10-7-|

   Bridge
e|--0-0-00-0--000-0-00-000-0-|
B|--0-0-00-3--000-0-00-000-0-|
G|--0-0-00-0--000-0-00-000-0-|
D|--2/4-44-4--444-4-22-222-2-|
A|--3/5-55-5--555-5-33-333-3-|
E|--0-0-00-0--000-0-00-000-0-|

   2nd Solo (again, slight delay effect)
e|-----------------------------------------------------------|
B|-------------8-9-0-----------------------8-10-10bp8-8-8\7--|
G|-----7--7h9--------7/9--------7-7h9---7h9----------9-9---7-|
D|-/7h9-9---------------7h9------9---------------------------|
A|-----------------------------------------------------------|
E|-----------------------------------------------------------|

e|-------------------------------------------------------------|
B|----------------------------8-7-------8-7----8-7-----------5-|
G|------------------------7--9-----7h9-----7------7\4-4-2/4-7--|
D|-9-7-7\5-5------7-8-8h9--------------------------------------|
A|------------7h10---------------------------------------------|
E|-------------------------------------------------------------|

e|----------------------------------------------10-8-7--7----|
B|-/8-7---------8-7-----------8-7----8-8-10~----------10-10--|
G|-----7-----7h9---7-----7--/9---7h9--9------9---------------|
D|------9-7-9-------9/7\9------------------------------------|
A|-----------------------------------------------------------|
E|-----------------------------------------------------------|

e|---------------------------------------------------------------------|
B|-10bp7-7------8p7------7h8p7-------------------/8-7-0----------------|
G|------9-9--7h9---7--7h9-----7/4-4/2-2\4-7-4-7/9--------7h9-----7-7h9-|
D|----------------------------------------------------------7h9---9----|
A|---------------------------------------------------------------------|
E|---------------------------------------------------------------------|

e|------------------|
B|-----------7h8/10-|
G|-7------7h9-------|
D|-----7h9----------|
A|------------------|
E|------------------|
   Thats all,
   Enjoy!
00:00 / 00:00
Otros videos de esta canción
Repetir
Otros videos de esta canción
Composición de Dallas Green
388 exhibiciones
    • ½ Tono
    • A
    • Bb
    • B
    • C
    • Db
    • D
    • Eb
    • E
    • F
    • F#
    • G
    • Ab
  • Agregar a la lista
    00:00 / 00:00
    OK