Cifra Club

Day Old Hate

City And Colour

Cifrado: Versão 3 (guitarra y guitarra eléctrica)
Selo Cifra Club: esta cifra foi revisada para atender aos critérios oficiais da nossa Equipe de Qualidade.
tono: Em
E|---|---|---|
B|---|---|-3-|
G|---|---|---|
D|---|-1-|---|
A|---|---|-2-|
E|---|---|---|




[Intro tabs:]

E|------0h2-----2h3p-------------5-5555-(5)-555----------------------------------------------|
B|----------0--------0------------------------------------3-(3)-----3-(3)-333-3-(3)-333------|
G|------------0---------0-------------------------------------------4-(4)-444-4-(4)-444------|
D|--0h2-------------------0h2--2/4-4444-(4)-444-2-(2)-222-2-(2)-222-2-(2)-222-2-(2)-222------|
A|-----------------------------3/5-5555-(5)-555-3-(3)-333-3-(3)-333-3-(3)-333-3-(3)-333------|
E|-------------------------------------------------------------------------------------------|


[Verse]
          Em             Dsus2              Cmaj7  Cadd9
So let's face it this was    never what you  wanted
      Em            Dsus2  Cmaj7  Cadd9
But I know it's fun to pretend
    Em    Dsus2            Cmaj7  Cadd9
Now blank stares and empty threats
    Em  Dsus2 Cmaj7 Cadd9        Em  Dsus2 Cmaj7 Cadd9
Are all I     have,      they're all I     have.



[Chorus]

   Dsus2               Cmaj7 Cadd9
So drown me and if you can
Dsus2                        Cmaj7 Cadd9
Or we could just have conver sation.
Dsus2                          Cmaj7 Cadd9
     And I fall, I fall, I fal-ter
         Dsus2                   Cmaj7 Cadd9
But I'll find you before I drift away


Solo same as the intro 



[Verse]

    Em        Dsus2            Cmaj7  Cadd9
Now you still speak of day old hate
            Em         Dsus2                 Cmaj7  Cadd9
Though your whole world     has gone up into flames
    Em            Dsus2                 Cmaj7      Cadd9
And isn't it great to find that you're really worth nothing
        Em      Dsus2      Cmaj7      Cadd9
And how safe it is to feel safe.


[Chorus]

Dsus2               Cmaj7 Cadd9
So drown me and if you can
Dsus2                        Cmaj7 Cadd9
Or we could just have conver sation.
Dsus2                          Cmaj7 Cadd9
     And I fall, I fall, I fal-ter
         Dsus2                     Cmaj7 Cadd9
But I'll find you before I drift away


[Guitar solo and vocals]


    Em        Dsus2           Cmaj7  Cadd9
The things we do just to stay alive
    Em        Dsus2           Cmaj7  Cadd9
The things we do just to stay alive
    Em        Dsus2           Cmaj7  Cadd9
The things we do just to stay alive
    Em(hold)            Dsus2 (hold)          Cmaj7 (hold)
The things we do just to     keep ourselves alive.
Otros videos de esta canción
    53 exhibiciones
      • ½ Tono
      • Am
      • Bbm
      • Bm
      • Cm
      • C#m
      • Dm
      • Ebm
      • Em
      • Fm
      • F#m
      • Gm
      • G#m
    • Agregar a la lista

    Afinación de cifrado

    Afinador online

      OK