Cifra Club

Forgive Me

City And Colour

Cifrado: Principal (guitarra y guitarra eléctrica)
Selo Cifra Club: esta cifra foi revisada para atender aos critérios oficiais da nossa Equipe de Qualidade.
tono: C
     C              Em        Am                G       F/C       G       Am         G
E|---------------------------------------------------------0-----------0----------0---------------|
B|--1------1h3p1---0--0------0h1-------3p1-------3p1-----------------1----------------------1-----|
G|----0-------------------2------2---------2-----------2-2---------------0h2-2-2----------------0-|
D|------2---------------2----------2----------0-0------3-3------0-0------0h2-2-2----0---0-0---0---|
A|--3--------------2---------0-------0--------2-2------3-3------2-2------0---0-0----0h2-2-2---2---|
E|--------------------------------------------3-3---------------3-3-----------------3---3-3---3---|

     C               G       Am         Em      F/C        G            Am           G
E|------------------------0--------0----------------------0-----------0---------0-----------------|
B|--1--------3p1------0h1-------1-------------1---------------------1------------------------1----|
G|-----0---------0----------0h2---2--2--0-0-0-0--0h2-2-2-----------------0h2-2-2--2--------------0|
D|-------2----------0-------0h2---2--2--2-2-2----3---3-3----0---0-0--0---0h2-2-2--2--0---0-0---0--|
A|--3------3--------2-------0-----0--0--2-2-2----3---3-3----0h2-2-2--2---0---0-0--0--0h2-2-2---2--|
E|------------------3---------------------------------------3---3-3--3---------------3---3-3---3--|


C             Em        Am      G
I'll cross my heart and hope to die

F/C     G         Am       Em
Before I have the chance to lie

C       G        Am            Em
To you, my dear, who I wish no harm

F/C          G            Am            Em
But I know in the end this will turn out wrong

    C         Em       Am      Em
See I've been known to fall in love

    F/C       G        Am      G
But sometimes love just is not enough

    C             Em    Am         G
And my heart will stray before too long

   F/C    G              Am           G    Am
So please forgive me for when I sing this song

F/C
ooooohhh

Am
ooohh
Otros videos de esta canción
    2.215 exhibiciones
      • ½ Tono
      • A
      • Bb
      • B
      • C
      • Db
      • D
      • Eb
      • E
      • F
      • F#
      • G
      • Ab
    • Agregar a la lista

    Afinación de cifrado

    Afinador online

      OK