Cifra Club

Fragile Bird

City And Colour

Cifrado: Principal (guitarra y guitarra eléctrica)
tono: C (con acordes en la forma de G) Capotraste en 5ª casa
Capotraste 5ª Casa

(Introdução)

E|------------------------------------------|
B|------------------------------------------|
G|------------------------------------------|
D|---4-4-4-4-4-4-4--------------------------|
A|---2-2-2-2-2-2-2--------------------------|
E|---0-0-0-0-0-0-0--------------------------|

E|------------------------------------------|
B|------------------------------------------|
G|------------------------------------------|
D|---4-4-4-4-4-4-4--------------------------|
A|---3-3-3-3-3-3-3--------------------------|
E|---0-0-0-0-0-0-0--------------------------|

E|------------------------------------------|
B|------------------------------------------|
G|------------------------------------------|
D|---4-4-4-4-4-4-4--------------------------|
A|---5-5-5-5-5-5-5--------------------------|
E|---0-0-0-0-0-0-0--------------------------|

E|------------------------------------------|
B|------------------------------------------|
G|------------------------------------------|
D|---5-5-5-5-5-5-5--------------------------|
A|---4-4-4-4-4-4-4--------------------------|
E|---0-0-0-0-0-0-0--------------------------|

(Refrão)

E|---0-0-0-0-0-0-0--------------------------|
B|---3-3-3-3-3-3-3--------------------------|
G|---0-0-0-0-0-0-0--------------------------|
D|---4-4-4-4-4-4-4--------------------------|
A|---5-5-5-5-5-5-5--------------------------|
E|---5-5-5-5-5-5-5--------------------------|

E|---0---0----------------------------------|
B|---0---0----------------------------------|
G|---0---0----------------------------------|
D|---2---2----------------------------------|
A|---2---2----------------------------------|
E|---0---0----------------------------------|

E|---0-0-0-0-0-0-0-0-0-0----------------------|
B|---1-1-1-1-1-1-1-1-1-1----------------------|
G|---0-0-0-0-0-0-0-0-0-0----------------------|
D|---2-2-2-2-2-0-2-2-0-2----------------------|
A|---3-3-3-3-3-3-3-3-3-3----------------------|
E|---3-3-3-3-3-3-3-3-3-3----------------------|

(último acorde)

E|---0------------|
B|---0------------|
G|---0------------|
D|---4------------|
A|---2------------|
E|---0------------|
00:00 / 00:00
Otros videos de esta canción
Repetir
Otros videos de esta canción
Composición de Dallas Green
Colaboración y revisión:
  • Jhonatan Silva
112 exhibiciones
    • ½ Tono
    • A
    • Bb
    • B
    • C
    • Db
    • D
    • Eb
    • E
    • F
    • F#
    • G
    • Ab
  • Agregar a la lista
    00:00 / 00:00
    OK